Guitar Chords » S »Shakira » Antología (Tab)

Antología
Shakira

Lyrics, Chords & Tabs for Guitar, Bass & Ukulele

  •        C  Csus9      Am 
    Para amarte  necesito una razon
           F5                                            G  G7
    y es dificil creer que no exista otra mas que este amor
           C  Csus9      Am  Am7
    sobra tanto dentro de este corazon
           F5         
    que a pesar de que dicen que los años son sabios
         G                        Am
    todavia se siente el dolor
                    F                    C    G  Am  
    porque todo el tiempo que pase junto a ti
           F5                     Dm7   G7 
    dejo tejido su hilo dentro de mi
    
    CORO
               C                           Csus9
      Y aprendi a quitarle al tiempo los segundos
               Am 
      tu me hiciste ver el cielo mas profundo
    
  •        C         Am 
    Para amarte  necesito una razon
           F                                             G
    y es dificil creer que no exista otra mas que este amor
           C             Am  
    sobra tanto dentro de este corazon
           F         
    que a pesar de que dicen que los a±os son sabios
         G                        Am
    todavia se siente el dolor
                    F                   C     G
    porque todo el tiempo que pase junto a ti
           F                        G 
    dejo tejido su hilo dentro de mi
    
    A)         C           
      Y aprendi a quitarle al tiempo los segundos
               Am 
      tu me hiciste ver el cielo mas profundo
               F        
    
  •           C9
    e||----|------|------|
    B||----|------|---X--|
    G||----|------|------|
    D||----|---X--|------|
    A||----|------|---X--|
    E||----|------|------|
        1     2      3
    
             Asus
    e||----|------|------|
    B||----|------|--X---|
    G||----|--X---|------|
    D||----|--X---|------|
    A||----|------|------|
    E||----|------|------|
        1     2     3
    
    
    
    
  • esta cancion es chida
    E|----------|---------|-1-1-1-1-|-3-3-3--|
    A|--3-3-3-3-|-0-0-0-0-|---------|--------|
    D|----------|---------|---------|--------|
    G|----------|---------|---------|--------|
    
    E|---------------|
    A|---------------|
    D|--12-12-15-14--|
    G|---------------|
    
    Para amarte
    E|----------|---------|-1-1-1-1-|-3-3-3--|
    A|--3-3-3-3-|-0-0-0-0-|---------|--------|
    D|----------|---------|---------|--------|
    G|----------|---------|---------|--------|
    
    sobra tanto
    E|----------|---------|-1-1-1-1-|-3-3-3--|
    A|--3-3-3-3-|-0-0-0-0-|---------|--------|
    D|----------|---------|---------|--------|
    G|----------|---------|---------|--------|
    
    E|--------|
    A|--12/5--|
    D|--------|
    G|--------|
    
    Porque todo
    E|----|-1-|-3--|-3-|-3--------|
    A|--0-|---|--3-|---|-------3--|
    D|----|---|----|---|--3h5-3---|
    G|----|---|----|---|----------|
    
    Dejo tejido
    E|----|-1-|---|-53-|--------|
    A|--0-|---|-5-|----|--------|
    D|----|---|---|----|-3h55-5-|
    G|----|---|---|----|--------|
    
    E|--3-|-3-|-------|
    A|----|---|-12/
  • +
    ¡Colabora con nosotros!
    Envíanos tu versión de esta canción

Antología Lyrics
Para amarte necesito una razon
y es dificil creer que no exista otra mas que este amor
sobra tanto dentro de este corazon
que a pesar de que dicen que los a±os son sabios
todavia se siente el dolor
porque todo el tiempo que pase junto a ti
dejo tejido su hilo dentro de mi
Y aprendi a quitarle al tiempo los segundos
tu me hiciste ver el cielo mas profundo
junto a ti creo que aumente mas de tres kilos
con tus tantos dulces besos repartidos
desarrollaste mi sentido del olfato
y fue por ti que aprendi a querer los gatos
despegaste del cemento mis zapatos
para escapar los dos volando un rato
pero olvidaste una final instruccion
porque aun no se como vivir sin tu amor
Y descubri lo que significa una rosa
me ense±aste a decir mentiras piadosas
para poder verte a horas no adecuadas
y a remplazar palabras por miradas
y fue por ti que escribi mas de cien canciones
y hasta perdone tus equivocaciones
y conoci mas de mil formas de besar
y fue por ti que descubri lo que es amar
/lo que es amar, lo que es amar
lo que es amar, lo que es amar./ [bis]




[Antología acordes][Antología cifra]
© LaCuerda.net · legal notice · privacy · es · en · pt · contact us
DINAMICO