Guitar Chords » R »Roberto Carlos » Que sera de tí (Tab)

Que sera de tí
Roberto Carlos

Lyrics, Chords & Tabs for Guitar, Bass & Ukulele

  •             A  F#m
    Que será de ti, 
                C#m               Em
    necesito saber hoy de tu vida, 
                         D               Dm  
    alguien que me cuente sobre tus días, 
                        E
    anocheció y necesito saber. 
    
    Verso 2
           A       F#m
    Que será de ti, 
                     C#m             Em
    cambiaste sin saber toda mi vida, 
                     D                 Dm
    motivo de una paz que ya se olvida, 
                            E            E7
    no sé si gusto mas de mi o más de ti.
    
    Coro:
    
  •              A  E  Fm
    Qué será de ti
                  C#m           Em A D
    Necesito saber hoy de tu vida
                                     Dm
    Alguien que me cuente sobre tus días
     Am                        E
    Anocheció, y necesito saber…
    
                 A  E   Fm
    Qué será de ti
                 C#m              Em  A   D
    Cambiaste sin saber toda mi vida
                                   Dm
    Motivo de una paz que ya se olvida
      Am                               E   E7
    No sé si gusto más de mí, o más de ti
    
    A                                    Fm
    Ven, Que esta sed de amarte me hace bien
    
  • Qué será de ti
    
    VERSO 1
      t=69
    G|---------------------------------|---------------------------------|
    D|-7-----------7---7-------6-------|-4-----------4---4---------------|
    A|---------------------------------|---------------------------------|
    E|---------------------------------|---------------------------------|
    
    G|---------------------------------|---------------------------------|
    D|---------------------------------|-2-----------2-------------------|
    A|-4-----------4---4---------------|-----------------0-------2---4---|
    E|---------------------------------|---------------------------------|
    
    G|---------------------------------|---------------------------------|
    D|---------------------------------|---------------------------------|
    A|-5-----------5---5---------------|-5-----------5---5---------------|
    E|---------------------------------|---------------------------------|
    
    G|---------------------------------|---------------------------------|
    D|-2-----------2---2---------------|-2---
  • +
    ¡Colabora con nosotros!
    Envíanos tu versión de esta canción

Que sera de tí Lyrics
Que será de ti,
necesito saber hoy de tu vida,
alguien que me cuente sobre tus días,
anocheció y necesito saber.
Verso 2
Que será de ti,
cambiaste sin saber toda mi vida,
motivo de una paz que ya se olvida,
no sé si gusto mas de mi o más de ti.
Ven que esta sed de amarte me hace bien
yo quiero amanecer contigo amor
te necesito para estar feliz.
Ven que el tiempo corre y nos separa
la vida nos esta dejando atrás
yo necesito saber que será de ti.
Verso 3
Que será de ti,
cambiaste sin saber toda mi vida,
motivo de una paz que ya se olvida,
no sé si gusto mas de mi o más de ti.




[Que sera de tí acordes][Que sera de tí cifra]
© LaCuerda.net · legal notice · privacy · es · en · pt · contact us
DINAMICO