Guitar Chords » R »Roberto Carlos » El gato que esta triste y azul (Tab)

El gato que esta triste y azul
Roberto Carlos

Lyrics, Chords & Tabs for Guitar, Bass & Ukulele

  • Intro: MIb SIb7 MIb
    
                     MIb            SIb7
    Cuando era un chiquillo, que alegría,
                 FAm            MIb
    jugando a la guerra noche y día.
                 MIb7           LAb
    Saltando una verja, verte a ti,
      LAbm       MIb       SIb7       MIb
    y así en tus ojos algo nuevo descubrir.
    
                MIb           SIb7
    Las rosas decían que eras mía
                   FAm      MIb
    y un gato me hacía compañía.
                   MIb7        LAb    LAbm
    Desde que me dejaste yo no sé por qué
          MIb         SIb7           MIb
    la ventana es más grande sin tu amor.
    
    
  • e|-----2----2-----2----2-----0----0-|
    b|----3----3-----3----3-----3----3--|
    g|---2----2-----2----2-----3----3---|
    d|-4----------4----------3----------| repetir varias veces
        D                     A
                     D               A
    Cuando era un chiquillo, que alegría,
                 Em             D
    jugando a la guerra noche y día.
                 D7             G
    Saltando una verja, verte a ti,
       Gm        D         A7         D
    y así en tus ojos algo nuevo descubrir.
                D             A
    Las rosas decían que eras mía
                   Em       D
    y un gato me hacía compañía.
                   D7          G      Gm
    Desde que me dejaste yo no sé por qué
          D           A              D
    
  •                   E             B7
    Cuando era un chiquillo que alegría
                   F#m            E
    jugando a la guerra noche y día,
                   E7          A    Am
    saltando la verja verte a ti y así
            E           B7         E
    en tus ojos algo nuevo descubrir
    -----------------------------------------
                               B7
    Las rosas decían que eras mía
                             E
    y un gato me hacía compañía
                      E7         A     Am
    desde que me dejéaste yo no sé porque
           E             B7           E
    la ventana es mas grande sin tu amor.
    
    
    A partir de aquí es con rasgueo
    
  • e|-------(2)---(2)---(2)---(2)-|
    B|-----(3)---(3)---(3)---(3)---|
    G|---(2)---(2)---(2)---(2)-----|
    D|-(0)---------(0)-------------|
    A|-----------------------------|
    E|-----------------------------|
    
    
     |____________________X2_____________________|
                RE                         LA7
    e|------------(2)----(2)--|------------(0)----(0)--|
    B|---(3)----(3)----(3)----|---(2)----(2)----(2)----|
    G|--------(2)----(2)------|--------(0)----(0)------|
    D|---(0)------------------|------------------------|
    A|------------------------|---(0)------------------|
    E|------------------------|------------------------|
    
    
    
    Después de eso, seguimos la siguiente secuencia hasta el empiezo del rasgueo:
    
  • B:-------4-------|---------------|
    G:-----3---3---3-|-------7-------|
    D:---5-------5---|-----8---8---8-|
    A:-6-------------|---8-------8---|
    E:---------------|-6-------------|
    
    Cuando era un chiquillo que alegr�  jugando a la guerra noche y d�  saltando la verja
       repeat          repeat                            repeat         repeat
    e:---------------|---------------|---------------|---------------|---------------|
    B:-------4-------|---------------|---------------|-------8-------|-------8-------|
    G:-----3---3---3-|-------7-------|-------7-------|-----8---8---8-|-----6---6---6-|
    D:---5-------5---|-----8---8---8-|-----6---6---6-|---8-------8---|---8-------8---|
    A:-6-------------|---8-------8---|---8-------8---|-6-------------|-6-------------|
    E:---------------|-6-------------|-6-------------|---------------|---------------|
    
    
    verte a t� as�          en tus ojos algo nuevo descubr퍊
    :-----------------|---------------|-------3-------|--------1h3p1-----|
    :--------9--------|-------9-------|-----4---4---4-|------3-------4-3-|
    :------8---8---8--|-----8---8---8-|---0-------0---|----3-------------|
    
  • Dm: XX0231
    Dm,maj7: XX0221
    Dm7: XX0211
    Em7/B: X20030
    G7: 320001
    
    
         C                               C
    
    |E|- - - - - 0 - - - - 0 - - - - -|- -- - - 0 - - - -- 0 - - - -|
    |B|- 1 - - - - -1 - - - - -1 - - -|- 1 - - - -- 1 - - - - 1 - --|
    |G|- - - 0 - - - - 0 - - - - -0 - | - - 0 - - - -  0 - - - - 0 -|
    |D|- - - - - - - - - - - - - - - -|- - - - - - - - - - - - - - -|
    |A|- 3 - - - - - - - - - - - - -  |- 3 - - - - - - - - - - - - -|
    |E|- - - - - - - - - - - - - - - -| - - - - - - - - - - - - -  -|
    
    
         Dm                             Dm,maj7
    
    |E|- - - - - 1- - - --1 - - - - -|- - - - -1 - - -  1- -  - - - -|
    
  • +
    ¡Colabora con nosotros!
    Envíanos tu versión de esta canción
  • Tutorial
    HD
    Un GATO en la OSCURIDAD Acordes Guitarra
    5:15

El gato que esta triste y azul Lyrics
Cuando era un chiquillo, que alegría,
jugando a la guerra noche y día.
Saltando una verja, verte a ti,
y así en tus ojos algo nuevo descubrir.
Las rosas decían que eras mía
y un gato me hacía compañía.
Desde que me dejaste yo no sé por qué
la ventana es más grande sin tu amor.
El gato que está en nuestro cielo
no va a volver a casa si no estás.
No sabes mi amor, que noche bella...
Presiento que tu estás en esa estrella.
El gato que está triste y azul
nunca se olvida que fuiste mía.
Mas sé que sabrá de mi sufrir,
porque en mis ojos una lágrima hay.
(TONALIDAD DE MI MAYOR)
Querida, querida, vida mía.
Reflejo de luna que reía.
Si amar es errado, culpa mía, te amé.
En el fondo, ¿que es la vida?, no lo sé.
El gato que está en nuestro cielo
no va a volver a casa si no estás.
No sabes mi amor, que noche bella…
Presiento que tu estás en esa estrella
El gato que está triste y azul
nunca se olvida que fuiste mía.
Mas siempre serás, en mi mirar,
lágrima clara de primavera.
El gato que está en la oscuridad
sabe que en mi alma una lágrima hay.
ACORDES:
6 5 4 3 2 1 6 5 4 3 2 1




[El gato que esta triste y azul acordes][El gato que esta triste y azul cifra]
© LaCuerda.net · legal notice · privacy · es · en · pt · contact us
DINAMICO