Guitar Chords » R »los Ratones Paranoicos » Rock del Gato (Tab)

Rock del Gato
los Ratones Paranoicos

Lyrics, Chords & Tabs for Guitar, Bass & Ukulele

  • E|---------------------------|
    B|---------------------------|
    G|---------------------------|
    D|---------------------------|  ---> Riff 1 (la)
    A|--3--3--3--3--2--0-----0---|
    E|--------------------3------|
    
    
    E|--------------------------------------------------|
    B|--------------------------------------------------|
    G|--------------------------------------------------|
    D|--------------------------------------------------| ---> Riff 1 (la)
    A|--3--3--3--3--2--0-----------4--4--5--5--6--6--7--|
    E|--------------------3--5--5-----------------------|
    
    \_ _ _ _ _ _ _ _ _ _ _ _ _    _ _ _ _ _ _ _ _ _ _ _ _ _ _ _ _ _ /
                               \ /
                             Intro
    
    
    
  •   A
    /-----------------------------
    /-----2--3--3--2--2--3--3-----
    /-----2--2--2--2--2--2--2-----
    /-----2--4--4--2--2--4--4-----
    /--0--------------------------
    /-----------------------------
    
                         A
    Quiero verla en el show
    
    /-----------------------------
    /-----2--3--3--2--2--3--3-----
    /-----2--2--2--2--2--2--2-----
    /-----2--4--4--2--2--4--4-----
    /--0--------------------------
    /-----------------------------
    
                       A
    es como un gato siames
    
  • Riff 1 (LA)                 Riff 2 (RE)         Riff 3
    
    A|-7h9-9p7-7h9-9p7-|        A|-7-9-7h9-|        D|-----9-----|
    E|-5---5---5---5---|        E|-5-5-----|        A|-7s9-7-9s7-| 
                                                    E|-5s7---7s5-|
    
    
    Intro:
    
                           Riff 1
    Quiero verla en el show, 
                           Riff 1
    es como un gato siamés.
                            Riff 2
    Su cola arde en el risco
                         Riff 1 
    espero que alguna vez
                         Riff 3
    al ver sus ojos me de
                         Riff 1
    
  • +
    ¡Colabora con nosotros!
    Envíanos tu versión de esta canción

Rock del Gato Lyrics
\_ _ _ _ _ _ _ _ _ _ _ _ _ _ _ _ _ _ _ _ _ _ _ _ _ _ _ _ _ _ /
\ /
Riff 1 (La)
Riff 2 (re)
Riff 3 (mi)
Riff 1
Quiero verla en el show,
Riff 1
es como un gato siamés.
Riff 2
Su cola arde en el risco
Riff 1
espero que alguna vez
Riff 3
al ver sus ojos me de
Riff 1
alguna noche de hotel.
Quiero verla en el show,
es como un gato siamés.
Su cola arde en el risco,
espero que alguna vez
el ver sus ojos me de
alguna noche de hotel.
En mi boca no hay control,
me voy cayendo a sus pies.
Sus piernas son un abrigo,
al menos no moriré,
si todo me sale bien,
lo hare de nuevo otra vez.
****************
En mi boca no hay control,
me voy cayendo a sus pies.
Sus piernas son un abrigo,
espero que alguna vez,
al ver sus ojos me de,
alguna noche de hotel.
Quiero verla en el show,
es como un gato siamés.
Su cola arde en el risco,
al menos no moriré
si todo de sale bien
lo hare de nuevo otra vez.
Su cola arde en el risco,
espero que alguna vez
el ver sus ojos me de
alguna noche de hotel,
el ver sus ojos me de
alguna noche de hotel.
Final:




[Rock del Gato acordes][Rock del Gato cifra]
© LaCuerda.net · legal notice · privacy · es · en · pt · contact us
DINAMICO