Guitar Chords » R »los Ratones Paranoicos » Para siempre (Tab)

Para siempre
los Ratones Paranoicos

Lyrics, Chords & Tabs for Guitar, Bass & Ukulele

  • A                 E            F#m
    Quisiera que esto dure para siempre
    
    A                E         F#m
    Casi tanto como una eternidad
    
          D                 A
    Es verdad que soy una rata de ciudad
    
       B
    No tengo religión tengo ansiedad
    
    E        F#m                D
    Quiero mirar por el ojo de tu cerradura
    
    A         E      F#m
    No seas dura la mia es pura
    
    A         E      F#m
    Mi filosofía es de la calle y es mía
    
  • Los punteos de “para siempre” de los ratones
    
    INTRO:
    
    E-------------------------------------
    B-------------------------------------
    G-7---6----4---2---0-----2-—4-—2--0--- X4
    D-------------------------------------
    A-------------------------------------
    E-------------------------------------
    
    
    PUNTEO DE EN MEDIO:
    
    E-------------------------¦--------------------------¦ 
    B-------------------------¦--------------------------¦
    G-------------------------¦------4/6vv---6/2--2h4p2v-¦
    D------5—7br-5v-----------¦-5h7----------------------¦
    A-5-7---------------------¦--------------------------¦
    E-------------------------¦--------------------------¦
    
    E¦------------------------¦----7/8br----8/5-7--------¦
    B¦-- 4-4br-------4-6br-4v-¦--9-----------------7-----¦
    G¦-6-----------4----------¦--------------------------¦
    D¦------------------------¦--------------------------¦
    A¦------------------------¦--------------------------¦
    E¦------------------
  • INTRO
    
    e|-0==----------------------
    B|-3p2-2/4-2-0-2/4-2~~~-----
    G|--------------------------  x4
    D|--------------------------
    A|--------------------------
    E|--------------------------
    
    
    Quisiera que esto dure para siempre
    
    e|---------------------------------------------
    B|---------------------------------------------
    G|--2b---------(2)-----------------------------
    D|-----4---2-4---------------------------------
    A|-------4-------------------------------------
    E|---------------------------------------------
    
    Casi tanto como una eternidad
    
    e|---------------------------------------------
    B|---------------------------------------------
    G|-----2-4-4b6r4--2----------------------------
    D|--/4-----------------------------------------
    A|---------------------------------------------
    E|---------------------------------------------
    
    Es verdad que soy una rata de ciudad, no tengo religión tengo ansiedad
    Quiero mirar por el ojo de tu cerradura
    
    e|---------------------|--12-10-9------------------
    B|
  •       ---------------------------------------------E 6ta
    
       se puede tocar  asi tambien ,pero suena mejor la primera
          ------------------------------------------------e 1ra
          ---3/2------------------------------------------b
          ---2-------2/4---2-0----2/4----2----------------g
          ---2-------0-----0-0----0------0----------------d
          ---0--------------------------------------------a
          ------------------------------------------------E 6ta
    
    
    
    
    
    
    A                 E            F#m
    Quisiera que esto dure para siempre
    A                E         F#m
    Casi tanto como una eternidad
          D                 A
    
  • +
    ¡Colabora con nosotros!
    Envíanos tu versión de esta canción

Para siempre Lyrics
Quisiera que esto dure para siempre
Casi tanto como una eternidad
Es verdad que soy una rata de ciudad
No tengo religión tengo ansiedad
Quiero mirar por el ojo de tu cerradura
No seas dura la mia es pura
Mi filosofía es de la calle y es mía
Si contigo no se puede mejor que no me enrede
Lo que queres de mi ya lo aprendí
Hace tiempo otra vez desde lejos no me ves
Hace tiempo otra vez desde lejos no me ves (no me ves)
Hace tiempo otra vez desde lejos no me ves
Hace tiempo otra vez desde lejos no me ves
Hace tiempo otra vez desde lejos no me ves
Quisiera que esto dure para siempre
Casi tanto como una eternidad
Es verdad que soy una rata de ciudad
No tengo religión tengo ansiedad
Quiero mirar por el ojo de tu cerradura
No seas dura la mia es pura
Mi filosofía es de la calle y es mía
Es mia. es mia, es mia
Quisiera pero nada dura para siempre
Lo que querés de mi ya lo aprendí
Hace tiempo otra vez desde lejos no me ves
Desde lejos, desde lejos, desde lejos no me ves
Desde lejos, desde lejos, desde lejos no me ves
Desde lejos, desde lejos, desde lejos no me ves
.....




[Para siempre acordes][Para siempre cifra]
© LaCuerda.net · legal notice · privacy · es · en · pt · contact us
DINAMICO