Guitar Chords » R »los Ratones Paranoicos » Lo que doy (Tab)

Lo que doy
los Ratones Paranoicos

Lyrics, Chords & Tabs for Guitar, Bass & Ukulele

  • E-----10-12-13-12---------5-7-8-7--------5-7-8-10-8-7------------
    B--10-------------12----5---------7----5--------------10---------
    G----------------------------------------------------------------
    D----------------------------------------------------------------
    A----------------------------------------------------------------
    E---------------------------------------------------------------
    
    
    
    LAm           MIm          FA
    Siento que te quiero de verdad
    LAm        MIm              FA
    veo, esconderlo no va más
    LAm           MIm          FA
    quiero que nos vean caminar
                    LAm
    sin tener que simular
            MIm          FA
    lo que doy y lo que dás
    
    
  •  REm                 LAm            LAº
    E-----10-12-13-12---------5-7-8-7--------5-7-8-10-8-7--------------------
    B--10-------------12----5---------7----5--------------10-------
    G-----------------------------------------------------
    D-----------------------------------------------------
    A-----------------------------------------------------
    E-----------------------------------------------------
    
    Despues del intro hace esto
    
    E--------------------------------------
    B---------------8--8--8-------------------
    G---------------7--7--7-------------------
    D---------------6--6--6-------------------
    A----3---3------7--7--7---------------------
    E--5---5----5------------------------------
    
    LAm           MIm          FA MI
    Siento que te quiero de verdad
    LAm        MIm              FA MI
    
  • +
    ¡Colabora con nosotros!
    Envíanos tu versión de esta canción

Lo que doy Lyrics
Siento que te quiero de verdad
veo, esconderlo no va más
quiero que nos vean caminar
sin tener que simular
lo que doy y lo que dás
El fuego se cosume en soledad
besos que nos vea más allá
me debora, me debora la anciedad
me despierto y ya no estas
y al final siempre es lo mismo
Y cuando estás con el
y yo me quedo aquí
las hora nunca pasan para mi
y basta de mentir
si te vas con el
ya no pienses mas en mi
REPITE INTRO
Despues del intro hace esto
Siento que te quiero de verdad
veo, esconderlo no va mas
quiero que nos vean caminar
sin tener que simular
lo que doy y lo que dás
Y cuando estás con el
y yo me quedo aquí
las hora nunca pasan para mi
y basta de mentir
si te vas con el
ya no pienses mas en mi.




[Lo que doy acordes][Lo que doy cifra]
© LaCuerda.net · legal notice · privacy · es · en · pt · contact us
DINAMICO