Guitar Chords » R »Rata Blanca » Volviendo a casa (Tab)

Volviendo a casa
Rata Blanca

Lyrics, Chords & Tabs for Guitar, Bass & Ukulele

  • Intro: [F - G  /  Am - Bb  /  G - Am  /  F -  E  /  E]
    
    
    Am           Am(maj7)         Gm
    Hoy voy regresando hacia mi hogar
    
                 Gm(maj7)
    La noche está llegando
    
    F                E            D
    Y el ruido del tren me adormeció.  (F - G)
    
    Am           Am(maj7)      Gm
    Hoy igual que un perro trabajé
    
                 Gm(maj7)
    Para llevar a casa
    
    F          G            F   Am            C
    Algo de dinero y el dolor, de la dura ciudad
    
  • ESTA CANCIÓN SE LA DEDICO A MI NOVIA QUE LA AMO CON TODA SINCERIDAD
    Y ESPERO QUE SIEMPRE ESTEMOS JUNTOS
    
    INTRO:
    e|---------------------------------------------------------------------|
    B|---------------------------------------------------------------------|
    G|------------9--9--10---7~-7-7-9---5~--5-5-7---4~----4---7-5-4--------|
    D|--3--5--7---10-10-10---9~-9-9-9---7~--7-7-7---5~--5---5-------5/7~---|
    A|--3--5--7------------------------------------------------------------|
    E|--1--3--5------------------------------------------------------------|
    
    e|-----------------------------------------------|
    B|-----------------------------------------------|
    G|--9--9--10---7~-7-7-9---5~--5-5-7--------------|
    D|--10-10-10---9~-9-9-9---7~--7-7-7--------------|
    A|-----------------------------------5---0-2-3---|
    E|-----------------------------------------------|
                                       +(armónico)
    
         Hoy      voy regresando   hacia  mi  hogar.........
    e|----------------------------------
  •  F5 G5 A5
                                      ¦xx¦
     e|----------------------------------------------------|
     B|----------------------------------------------------|
     G|-9---9---10--7--7--7--9---5--5--5--7--4---4--7-5-4--|
     D|-10--10--12--9--9--9--10--7--7--7--9--5--5-5--------|
     A|--------------------------------------------------0-|
     E|----------------------------------------------------|
    
     e|-----------------------------------------------|
     B|-----------------------------------------------|
     G|-9---9---10--7--7--7--9---5--5--5--7-------4-5-|
     D|-10--10--12--9--9--9--10--7--7--7--9--(5)~7----|
     A|-----------------------------------------------|
     E|-----------------------------------------------|
    
    
    Canción:
    
         Voy, voy regresando  hacia mi hogar  la noche esta llegando  y el ruido del tren me adormeció.
    
  • e|----------------------------------------------------
    B|-----------5-5-6--3--3-3-5--1--1-1-3--0-0-----------
    G|-----------5-5-5--4--4-4-4--2--2-2-2--0-0--7-5-4----
    D|-3--5--7---7-7-7--5--5-5-5--3--3-3-3--2-2--------7--
    A|-3--5--7--------------------------------------------
    E|-1--3--5--------------------------------------------
    
    e|--------------------------------------
    B|--5-5-6--3--3-3-5--1--1-1-3-----------
    G|--5-5-5--4--4-4-4--2--2-2-2-----------
    D|--7-7-7--5--5-5-5--3--3-3-3--5~-------
    A|-------------------------------0-2-3--
    E|--------------------------------------
    
    
    Am             Am(maj7)            Am7
    Hoy voy regresando hacia mi hogar
    
                 Gm(maj7)
    La noche está llegando
    
  • -----------------|-----------------|-----------------|-----------------|
    -----------------|-----------------|-----------------|-----------------|x
    -5-5-5-5-5-3-3-1-|-1-1-1-1-1-0-0---|-----------------|-----------------|2
    -----------------|---------------3-|-3-3-3-3-3-3-3-3-|--1----3---5-----|
    
    Solo
    -----------------|-----------------|-----------------|-----------------|
    -----------------|-----------------|-----------------|-----------------|
    -----------------|-----------------|-----------------|-5-5-5-5-5-5-5-5-|
    -5-5-5-5-5-5-5-5-|-4-4-4-4-4-4-4-4-|-3-3-3-3-3-3-3-3-|-----------------|
    
    -----------------|-----------------|-----------------|-----------------|
    -----------------|-----------------|-----------------|-5-3-------------|
    -----------------|-----------------|-5-5-5-5-5-5-5-5-|-----7-5-3-----3-|
    -5-5-5-5-5-5-5-5-|-4-4-4-4-4-4-4-4-|-----------------|-----------7-5---|
    
    
    Verso
    
    Estribillo x2
    
  • +
    ¡Colabora con nosotros!
    Envíanos tu versión de esta canción

Volviendo a casa Lyrics
Hoy voy regresando hacia mi hogar
Gm(maj7)
La noche está llegando
Y el ruido del tren me adormeció. (F - G)
Hoy igual que un perro trabajé
Gm(maj7)
Para llevar a casa
Algo de dinero y el dolor, de la dura ciudad
De ti, beberé un poco de paz.
Es todo tan veloz, ven por favor.
Ángel, Ella es un ángel.
Tiene la llave que devuelve la ilusión. (G - F - E - D - C)
Dame, dame un instante,
Te necesita mi cansado corazón. (G - F - E - D - C)
El fuego no se apagó
(Igual en todas las estrofas y coros...)




[Volviendo a casa acordes][Volviendo a casa cifra]
© LaCuerda.net · legal notice · privacy · es · en · pt · contact us
DINAMICO