Guitar Chords » R »Rata Blanca » La leyenda del hada y el mago (Tab)

La leyenda del hada y el mago
Rata Blanca

Lyrics, Chords & Tabs for Guitar, Bass & Ukulele

  • Em                        D                    E                       B
    Cuenta la historia que un mago que un dia en su bosque encantado lloró.
    G                    D              C      B          Em
    Porque a pesar de su magia no habia podido encontrar el amor
    Em                D                    E              B
    La luna su unica amiga le daba fuerzas para soportar,
    G                    D              C      B          Em
    Todo el dolor que sentía por culpa de su tan larga soledad
    
    
    CORO 1
    
    
    C          Em             D          G
     Y es que sabia muy bien que es existir
    Am            A7       B7
     nunca debia salir de su destino
    Em          Am              D              G   B
     Si alguien te quiere amar  ya lo sabras
    C             F#7          B7
    
  •  Em                       |  D                      | E     | B B B  Am|
     Cuenta la historia que un mago que un dia en su bosque encantado lloró.
                                                         ´´ ´´    ´´    ´´
     G                        |     D                   |CC Bb  | EE    CB |
     Porque a pesar de su magia no habia podido encontrar el amor
    
                                                                 ´ ´ ´
     Em                       |     D                   | E     | B B B  Am| 
     La luna su unica amiga le daba fuerzas para soportar,
                                                         ´´ ´´
     G                        |     D                   |CC Bb  | E        |        
     Todo el dolor que sentía por culpa de su tan larga soledad
    
    
    CORO 1:
    
    C            |Em          |D     F#º7 |  G    G#º7 |
     Y es que sabia muy bien que es existir
    
    Am           |A#º7        |B7         |B7 D#º7    |
    
  • /MIm                             / RE                            / MIm              /           SI7/
    Cuenta la historia de un mago que un día en su bosque encantado lloró,
    /SOL                            /RE                    /DO       -      RE/ MIm DO - SI/
    por que a pesar de su magia no había podido encontrar el amor.
    /MIm                   / RE                 / MIm   /           SI7/
    La luna su única amiga le daba fuerzas para soportar,
    /SOL                          /RE                    /DO    -   SI/ MIm /
    todo el dolor que sentía por culpa de su tan larga soledad.
    
    /DO             /MIm           /RE            /     SOL - SOL#°7 -LAm/ SIb°7-SI7sus-SI7-MIb°7/
    Y es que sabía muy bien que en su existir nunca debía salir de su destino.
    /MIm - SOL#°7 / LAm       / RE FA#°7/SOL/ DO - MIb°7 /FA#7 /SI7
    Si alguien te tiene que amar, ya lo sabrás, sólo tendrás que saber reconocerlo.
    
    /MIm                   / RE                 / MIm   /           SI7/
    Fue una tarde que el mago paseando en el bosque la vista cruzó
    /SOL                            /RE                    /DO       -      RE/ MIm DO - SI/
    con la más dulce mirada que en toda su vida jamás conoció.
    /MIm                   / RE                 / MIm   /           SI7/
    Desde ese mismo momento el hada y el mago quisieron estar
    
  • E---------------------------------------------------|--------------------
    B---------------------------------------------------|--------------------
    G*-------------------------------------------------*|--------------------
    D*-------------------------------------------------*|--------------------
    A---------------------------------------------------|--------------------
    E---3-0-0-0-0-0-3-0-0-0-0-0-3-2-0-5-3-2-3-0-0-0-0-0-|-3-0-0-0-0-0-3-0-0-0
     Pm......................................................................
                                       Letra riff 1
    E-----------------------------|-------------------------|----------------
    B-----------------------------|-------------------------|----------------
    G-----------------------------|*------------------------|----------------
    D-----------------------------|*------------------------|----------------
    A-------------2-3-5-3-2-------|-------------------------|-5-5-5-5-5-5-5-5
    E-0-0-0-2-3-5-----------5-3-2-|--0-0-0-0-0-0-0-0-0-0-0-0|----------------
    .........................................................................
    
    E--------|-----------------------|-------------------------|-------------
    B--------|-----------------------|-------------------------|-------------
    G--------|-----------------------|-------------------------|-------------
    D--------|-----------------------|-------------------------|-------------
    
  • ESPECIFICACIONES
    b= estirar cuerda
    be= estirar y bajar la cuerda
    h= hummer
    n-tupleto 3
    v=vibrar la cuerda
    .=SEMICORCHEA
    ,=CORCHEA
    ;=NEGRA
    *=BLANCA
    +=FUSA
    :=REDONDA
       ,  , , , , ,, , , ,, , , , , , , , , , *
    e|-12h7-------------------------------------|-|
    B|------8-------------------8-----7-8-7-----|-|
    G|--------9---------------9---8-9-------8-9-|X|
    D|----------9-----------9-------------------|2|
    A|------------10-7-9-10---------------------|-|
    E|------------------------------------------|-|
    
       ,, . .. . .. ,, . .. . .. ,, . .. . .. ,, . .. . ..
    e|-14-7-11-7-11-14-7-11-7-11-15-7-12-7-12-15-7-12-7-12-
    B|-----------------------------------------------------
    G|-----------------------------------------------------
    D|-----------------------------------------------------
    A|-----------------------------------------------------
    E|-----------------------------------------------------
    
       ,, .. .. .. ,, .. .. .. .. ,, .. .. .. .. .. ;;
    e|-17-10-14-10-14-17-10-14-10-14-19-10-15-10-15-19v-
    B|-----
  • <>= Armonicos                 / = Arrastres
    ~ = Vibratos                  p = Lidago descendente o Pull off 
    __3__ = Trecillos             h = Lidado ascendente o Hammer on
    b= estiradas o bends          r = Soltar la estirada
    x = Silencio de cuerda        tr = Mover la pua rapido y continuo [tremolo]
        o sordina                 t = tapping
    
    
    intro
    |----------------------------------------------------------------------------
    |----------------------------------------------------------------------------
    |----------------------------------------------------------------------------
    |----------------------------------------------------------------2-----------
    |-----------------------------------------------------------2-3-5-5-3-2------
    |[3-2-0-0-0-0-3-2-0-0-0-0-3-2-0-5-3-2-3-2-0-0-0-0]x4--2-3-5------------5-3-2-
    P.M......................................................................
    
    |--------------------------------------------------------------------------------------|
    |--------------------------------------------------------------------------------------|
    |--------------------------------------------------------------------------------------|
    
  • |--------------------------------|--------------------------------|
    |--------------------------------|--------------------------------|
    |--------------------------------|--------------------------------|
    |--------------------------------|--------------------------------|
    |--------------------------------|--------0-----------------------|
    |3-0-0---0-------3-0-0---0-------|3-2-0-----3-2---3-0-0---0-------|
    
    |--------------------------------|--------------------------------|
    |--------------------------------|--------------------------------|
    |--------------------------------|--------------------------------|
    |--------------------------------|--------------------------------|
    |--------------------------------|--------0-----------------------|
    |3-0-0---0-------3-0-0---0-------|3-2-0-----3-2---3-0-0---0-------|
     
    |--------------------------------|--------------------------------|
    |--------------------------------|--------------------------------|
    |--------------------------------|--------------------------------|
    |--------------------------------|--------------------------------|
    |--------------------------------|--------0-----------------------|
    |3-0-0---0-------3-0-0---0-------|3-2-0-----3-2---3-0-0---0-------|
    
  •  esta es la transcripcion del bajo la mayor parte la saco un camarada mio                     
    
                                                                                
    G||------------------|--------------------------|--------------------------|
    D||------------------|--------------------------|--------------------------|
    A||------------------|--------------------------|--------------------------|
    E||------------------|--3-0-0-0-0-0-3-0-0-0-0-0-|--3-2-0-5-3-2-3-0-0-0-0-0-|
    
    
                                                          
    --------------------------|--------------------------|
    --------------------------|--------------------------|
    --------------------------|--------------------------|
    --3-0-0-0-0-0-3-0-0-0-0-0-|--3-2-0-5-3-2-3-0-0-0-0-0-|
    
    
                                                          
    --------------------------|--------------------------|
    --------------------------|--------------------------|
    --------------------------|--------------------------|
    
  •       _____________________________________
         /
    +---+---------------------------------------+---+
    |   | 1 | 2 | 3 | 4 | 5 | 6 | 7 | 8 | 9 | 10| C |
    +---+---------------------------------------+---+
          _____________________________________/
    
    Cuenta la historia de un mago que un dia en su bosque encantado lloro
     8  8  8  8 (8) 7 (8)(8)(8)(8) 7 (7) 7  7  7  7 (7)(6)(7)
    porque a pesar de su magia no habia podido encontrar el amor
     8  8  8  8 (8) 7 (8)(8)(8)(8) 7 (7) 7  7  7  7 (7)(6) 6 (6)
    La luna su unica amiga le daba fuerzas para soportar
     8  8  8  8 (8) 7 (8)(8)(8)(8) 7 (7) 7  7  7  7 (7)(6)(7)
    todo el dolor que sentia por culpa de su tan larga soledad
     8  8  8  8 (8) 7 (8)(8)(8)(8) 7 (7) 7  7  7 (7)(6) 6 (6)
    
    Es que el sabia muy bien que en su existir
    (6)(7) 7 (7) 7 (8) 7     7 (8) 8  8
    nunca debia salir de su destino
    (9) 8 (8) 7 (7)(6)(7)   (6)(7)(6)(6) 6
    Si alguien tiene que hablar ya lo sabras
     8 (9) 9  9 (9) 8 (9)   (8) 8 (9)(9) 8
    solo tendras que saber reconocerlo
    (9) 8 (8)
  • +
    ¡Colabora con nosotros!
    Envíanos tu versión de esta canción
  • Tutorial
    HD
    EL SOLO MÁS VIRTUOSO EN ESPAÑOL: LA LEYENDA DEL HADA Y EL MAGO - Rata Blanca: Tutorial gu
    4:15

La leyenda del hada y el mago Lyrics
Cuenta la historia de un mago que un día en su bosque encantado lloró,
por que a pesar de su magia no había podido encontrar el amor.
La luna su única amiga le daba fuerzas para soportar,
todo el dolor que sentía por culpa de su tan larga soledad.
Y es que sabía muy bien que en su existir nunca debía salir de su destino.
Si alguien te tiene que amar, ya lo sabrás, sólo tendrás que saber reconocerlo.
Fue una tarde que el mago paseando en el bosque la vista cruzó
con la más dulce mirada que en toda su vida jamás conoció.
Desde ese mismo momento el hada y el mago quisieron estar
solos los dos en el bosque amándose siempre y en todo lugar.
Y el mal que siempre existió no soportó ver tanta felicidad entre dos seres.
Y con su odio atacó hasta que el hada cayó en ese sueño fatal de luz eterna.
****ACORDES DEL SOLO DE GUITARRA****
/ Fa# -Sib°/Sim/Mi - Sol#°/La/Re/Si/Do#/Do#/Do#/Do#/Do#/Do#/Do#/Do#/Fa#m - Do#/
/ Fa°-Fa#m /La - Mi/Sol#° - La / La - Re /Si - Mi /Do# - Do# - Fa#m/Mi - Re - Do#-Do#/
/Do/Do/Mim/Mim/Do/Do/. Fin Del Solo de Guitarra.
En su castillo pasaba las noches el mago buscando el poder
que devolviera a su hada, su amor, su mirada tan dulce de ayer.
Y no paró desde entonces buscando la forma de recuperar
a la mujer que aquel día en medio del bosque por fin pudo amar.
Y hoy sabe que es el amor, y que tendrá fuerzas para soportar aquel conjuro.
Sabe que un día verá su dulce hada llegar y para siempre con el se quedará.
Al final se repite 7 veces el riff principal por lo tanto lo ejecutarás de la siguiente manera:
/Mim/Mim/Do/Do/Mim/Mim/Do/Do/Mim/Mim/Do/Do/Mim/Mim/
Bien chavos eso es todo ya he visto esta camción en el átame pero sin los acordes del solo de guitarra
como sea ¡¡qué la disfruten!!




[La leyenda del hada y el mago acordes][La leyenda del hada y el mago cifra]
© LaCuerda.net · legal notice · privacy · es · en · pt · contact us
DINAMICO