Guitar Chords » R »Rata Blanca » El Beso de la Bruja (Tab)

El Beso de la Bruja
Rata Blanca

Lyrics, Chords & Tabs for Guitar, Bass & Ukulele

  • E|-------------------------------------------------------------------------------------|
    B|-------------------------------------------------------------------------------------|
    G|-------------------------------------------------------------------------------------|
    D|-------3--0--3--5--3------3--5--3--0--------3--5--3--5--3----7--8--10----------------|
    A|-------3--0--3--5--3------3--5--3--0--3-----3--5--3--5--3----5--6---8-10-------------|
    E|----3---------------------------------3--------------------------------8-------------|
    
    E|-------------------------------------------------------------------------------------|
    B|-------------------------------------------------------------------------------------|
    G|-------------------------------------------------------------------------------------|
    D|----3--0--3--5--3------3--5--3--0--------3--5--3--5--3----8--------------------------|
    A|----3--0--3--5--3------3--5--3--0--3-----3--5--3--5--3----8-----1-/-2-/-3------------|
    E|-----------------------------------3-------------------------------------------------|
    
    ===============================================================================================
    NOTA: Todos los acordes mencionados de aqui en adelante se refieren al 
    formato power chord
    ===============================================================================================
    
      C                                    Bb
    
  •                G5Bb5   C5  Bb5C5 Bb5
     4/4
                   Gtrs I, II, III
      Wx2          E E +S  E S E. E. E
    |------------|---------------------|
    |------------|---------------------|
    |------------|---3-(3)-5---3--5--3-|
    |------------|-5-3-(3)-5-x-3--5--3-|
    |------------|-5---------x---------|
    |------------|---------------------|
    
    
          Bb5   C5  Bb5G5 F5    Bb5   C5  Bb5C5 Bb5
      S S E +S  E S E. E. E   E E +S  E S E. E. E
    |-----------------------|----------------------|
    |-----------------------|----------------------|
    |-x-x-3-(3)-5---3-------|---3-(3)-5---3--5--3--|
    |-x-x-3-(3)-5---3--5--3-|---3-(3)-5-x-3--5--3--|
    |-------------x----5--3-|-----------x----------|
    |-----------------------|----------------------|
    
  • +
    ¡Colabora con nosotros!
    Envíanos tu versión de esta canción






[El Beso de la Bruja acordes][El Beso de la Bruja cifra]
© LaCuerda.net · legal notice · privacy · es · en · pt · contact us
DINAMICO