Guitar Chords » P »Patricio Rey y sus Redonditos de Ricota » Ya nadie va a escuchar tu remera (Tab)

Ya nadie va a escuchar tu remera
Patricio Rey y sus Redonditos de Ricota

Lyrics, Chords & Tabs for Guitar, Bass & Ukulele

  • Intro: D  D   G   A 
    D            Em
    Esto es efímero 
               D/F#
    ahora efímero
        G        A       G/B   A/C#
    ¡Cómo corre el tiem - po!
    
    Tic-tac efímero
    luces efímeras. (Pero te creo...)
    
    Es casi hipnótico
    (el tic no alcanza a tac)
    ni me moja el paladar
    ¡el ritmo efímero!
    ¡el grito efímero! (Pero te creo...)
    
    Em           G               Bm7
    Un último secuestro ¡No!
    Em          B                 Bm7
    
  • A-A-A (Tres Golpes)
    
    Em-G-A-D
    Em-G-A
    
    
    D
    Esto es efímero
    Em
    Ahora efímero
    A                   D
    Como corre el tiempo!
    D
    Tic... Tac efímero
    Em           G
    Luces efímeras
    A               D
    (Pero te creo...)
    Em-G-A-D
    Em-G-A
    
  • E|-5-5-5-5--|   |----------------------------------------10----||
    B|-5-5-5-5--|   |----------------10----------------10-12-------||
    G|-6-6-6-6--|   |*-11-9---11--11----12-11--9----12-------------||X4
    D|-7-7-7-7--|   |*------12-------------------12----------------||
    A|----------|   |----------------------------------------------||
    E|----------|   |----------------------------------------------||
    
    BAJO:    LA          RE         RE         SOL         LA
    G|----------|   |-----------|----------|-----------|-----------||
    D|----------|   |*----------|----------|-----------|-----------||X4
    A|--%-%-%-%-|   |*-5-5-5-5--|-5-5-5-5--|-----------|-----------||
    E|-5-5-5-5--|   |-----------|----------|--3-3-3-3--|---5-5-5-5-||
    
    
    VERSO 1:
    
    GUITARRA 1:
    E|---------------|------------------|-----------------|------------|
    B|---------------|------------------|-----------------|---------5--|
    G|---------------|------------------|-----------------|-------6----|X2
    
  • Intro
    G|---------|
    D|---------|
    A|-0-0-0-0-|
    E|---------|
    
     |---------------------|x4
     |---------------------|
     |-5555-5555-----------|
     |-----------3333-5555-|
    
    Verso
    G|----------------------------------|x2
    D|----------------------------------|
    A|-77-6-7--88-7-8--99-8-9------2-4--|
    E|-------------------------3-5------|
    
    Puente
    G|---------------------|x2
    D|---------------------|
    A|-5555-5555-----------|
    E|-----------3333-5555-|
    
    Verso
    G|----------------------------------|x2
    D|----------------------------------|
    A|-77-6-7--88-7-8--99-8-9------2-4--|
    E|-------------------------3-5------|
    
    Puente
    G|---------------------|x2
    D|---------------------|
    A|-5555-5555-----------|
    E|-----------3333-5555-|
    
    Coro
    G|----------------------------------|x3
    D|---------------------------1-2-4--|
    A|-77-6-7--88-7-8----------2--------|
    E|-----------------33-2-3-----------|
    
     |---------------------------|---------|
     |---------------------------|---------|
     |-77-6-7--
  • +
    ¡Colabora con nosotros!
    Envíanos tu versión de esta canción

Ya nadie va a escuchar tu remera Lyrics
Esto es efímero
ahora efímero
¡Cómo corre el tiem - po!
Tic-tac efímero
luces efímeras. (Pero te creo...)
Es casi hipnótico
(el tic no alcanza a tac)
ni me moja el paladar
¡el ritmo efímero!
¡el grito efímero! (Pero te creo...)
Un último secuestro ¡No!
el de tu estado de ánimo ¡No!
tu aliento me va a proteger
en este día y en cada día.
¡Al reloj lo del reloj!
¡Y alrededor del reloj tu estado de ánimo!
TodoUnPalo: Aguante Patricio Rey !!!




[Ya nadie va a escuchar tu remera acordes][Ya nadie va a escuchar tu remera cifra]
© LaCuerda.net · legal notice · privacy · es · en · pt · contact us
DINAMICO