Guitar Chords » P »Patricio Rey y sus Redonditos de Ricota » un poco de amor francés (Tab)

un poco de amor francés
Patricio Rey y sus Redonditos de Ricota

Lyrics, Chords & Tabs for Guitar, Bass & Ukulele

  • INTRO: DO LAm SOL
    
    e|-8-8-5------------|-8-8-5------------|-5-5-----5-5--------5---5--7-7-|
    B|-------8--5-6-5-6-|-------8--5-6-5-6-|-----5-------5-8--8---8--------|
    G|------------------|------------------|-------5-----------------------|
    D|------------------|------------------|-------------------------------|
    A|------------------|------------------|-------------------------------|
    E|------------------|------------------|-------------------------------|
    DO
    Una tipa rapaz
    LAm
    (como te gusta a vos)
    REm              SOL
    es tipa vino a consolarte
    DO
    Un poco de amor francés
        LAm
    no muerde su lengua, no
        REm                        SOL
    (no es sincera, pero te gusta oírla...)
    
  • INTRO: DO LAm SOL
    
    DO
    Una tipa rapaz
    LAm
    (como te gusta a vos)
    REm              SOL
    es tipa vino a consolarte
    DO
    Un poco de amor francés
        LAm
    no muerde su lengua, no
        REm                        SOL
    (no es sincera, pero te gusta oírla...)
    DO
    Es una linda ración
          LAm
    con un defecto (con uno o dos)
    REm                               SOL
    y es un cocktel que no se mezcla solo.
    
  •                   DO
    e|-----|-8-8--------------------|-8-8--------------------|
    B|-8/0-|-----10--8*-------------|-----10--8*-------------|
    G|-7/0-|------------9-10-9-10-9-|------------9-10-9-10-9-|
    D|-----|------------------------|------------------------|
    A|-----|------------------------|------------------------|
    E|-----|------------------------|------------------------|
       LAm                       SOL
    e|--------------|------------|----------------|
    B|--10-10-------|-10-10---8*-|-8-10-8-10-12-12|
    G|--------9-----|-------9----|----------------|
    D|----------10*-|------------|----------------|
    A|--------------|------------|----------------|
    E|--------------|------------|----------------|
    
    DO
    Una tipa rapaz
    LAm
    (como te gusta a vos)
    REm7                SOL7
    
  •                DO                  DO                       LA      LA       SOL 
    
    E|-----|-88888--------|---------|-88888--------|---------|55555--|5555----|-----5----5--7-(7)-||
    B|--8/-|-------10-(8~)|-5656-(5)|-------10-(8~)|-5656-(5)|-----5-|----5---|--8----8-----------||
    G|--7/-|--------------|---------|--------------|---------|------5|-----(8)|-------------------||
    D|-----|--------------|---------|--------------|---------|-------|--------|-------------------||
    A|-----|--------------|---------|--------------|---------|-------|--------|-------------------||
    E|-----|--------------|---------|--------------|---------|-------|--------|-------------------||
    
    bajo:
    G|-----|--------------|---------|--------------|---------|-------|--------|-------------------||
    D|-----|--------------|-2-2-52--|--------------|-2-2-52--|-------|--------|-------------------||
    A|-----|-----------3-3|3------33|-----------3-3|3------33|-------|--------|---55-22-----55-220||
    E|-----|--------------|---------|-3-5----------|---------|5-555-0|-3-555--|333-----533-3------||
    
    
    VERSO:
    
    DO              lAm
    Una tipa rapaz (como te gusta a vos),
    
  • INTRO: C C Am G
    -----------------
                                  _
    E|--8-8-8-------------------   |
    B|--------10-8--------------   |
    G|-------------9-10-9-10-9--   |==> X2
    D|--------------------------   |
    A|--------------------------   |
    E|--------------------------  _|
    
    E|-----------------------------------------------------
    B|--10-10-10---------10-10-10-----------10----10-12-12-
    G|-----------9----------------9-12~--12----12----------
    D|-------------10--------------------------------------
    A|-----------------------------------------------------
    E|-----------------------------------------------------
    
    
    SOLO: C Am Dm G
    ------------------
    
  • E|----------------------------------------------------------|
    B|-13-13-13-13-13--10---------------------------------------|
    G|---------------------12--9-10-9-10-9----------------------|
    D|----------------------------------------------------------|
    A|----------------------------------------------------------|
    E|----------------------------------------------------------|
    
    E|------------------------------------------------------------|
    B|-10-10-10-10-10-------10-10-10-10-10------------------------|
    G|----------------9--------------------9--10-12--10--12-14-16-|
    D|------------------10----------------------------------------|
    A|------------------------------------------------------------|
    E|------------------------------------------------------------|
    
    
    C5
    Una tipa rapaz
    Am5
    Como te gusta a vos
    Dm5               G5
    
  • +
    ¡Colabora con nosotros!
    Envíanos tu versión de esta canción

un poco de amor francés Lyrics
Una tipa rapaz
(como te gusta a vos)
es tipa vino a consolarte
Un poco de amor francés
no muerde su lengua, no
(no es sincera, pero te gusta oírla...)
Es una linda ración
con un defecto (con uno o dos)
y es un cocktel que no se mezcla solo.
Quiere, si quiere mas
(ya no la engatuzas)
Es una copa de lo mejor
cuando se ríe.
El lujo es vulgaridad
dijo y me conquisto
(de esa miel no comen las hormigas).




[un poco de amor francés acordes][un poco de amor francés cifra]
© LaCuerda.net · legal notice · privacy · es · en · pt · contact us
DINAMICO