Guitar Chords » P »Patricio Rey y sus Redonditos de Ricota » Etiqueta negra (Tab)

Etiqueta negra
Patricio Rey y sus Redonditos de Ricota

Lyrics, Chords & Tabs for Guitar, Bass & Ukulele

  • Intro: LAm REm MI
    
     LAm     Sol6/Si    DO          RE    MI       LAm
      Venía rápido, muy rápido y se le soltó un patín
              Sol6/Si          DO
    a él, que era rey de esta jungla,
         RE    MI       LAm REm MI
      se le soltó un patín...
    
    Su corazón no, no era un hotel
    aunque corria ese rumor
    y hoy tiene una entre otras cruces
    en este bosque siempre cruel.
    
    RE               DO RE
      Dejó un billete     que pide a gritos que lo gasten
             
    A|-0--3-2---0--3-2-------     
    E|--------3--------0-3-0-         x4
    
    
  • Intro: LAm - FA - MI X2
    
    LAm    SIm         DO           RE   MI       LAm
     Venía rápido, muy rápido y se le soltó un patín
              SIm             DO
     a el que era rey de ésta jungla,
        RE    MI       LAm
     se le soltó un patín.
    
     LAm - FA - MI
    
    LAm.      SIm.              DO            RE    MI
     Su corazón no, no era un hotel, aunque corría ese
       LAm             SIm              DO
     rumor y hoy tiene una, entre otras cruces, en
          RE      MI       LAm
     éste bosque, siempre cruel.
    
     LAm - FA - MI
    
    
  •  LAm                    RE           MI     LAm             RE         MI
    E|0-----------------|------------|-------|0---------------|-----------|----------|
    B|1-----------------|------------|-------|1---------------|-----------|----------|
    G|2-----------------|------------|-------|2---------------|-----------|----------|
    D|2-----5^7-5^7--2--|------------|-------|2----5^7-5^7-2--|-----------|---5^7-5^7|
    A|0-0-0-----------3-|0-5--3-3-2-0|0-2-3-5|0-0-0---------3-|0-5--3-3-2-|2-0-------|
    E|-----------------5|------------|-------|---------------5|-----------|----------|
    
    
    *'Semilla' Bucciarelli (BAJO)
      LA                    RE         MI           LA          RE         MI
    G|------------------|------------|-------|----------------|-----------|----------|
    D|------------------|------------|-------|----------------|-----------|----5/7-5/|
    A|------------------|5--5-5--5---|--7-7-7|----------------|5--5-5--5--|7-77------|
    E|-5--5-5--5--5-5--5|------------|-------|5--5-5--5--5-5-5|-----------|----------|
    
    
    *GUITARRA 2 (Toca estas notas durante la intro)
    ------------
    
    
  • Está perfecta la tab de Guillermo, aunque me suena mejor al final
    de cada verso, hacer Lam con cejilla :)
    
    Solo del final:
    
    Base: LAm - Re - Fa (Am - D - F)
    
       4:11
       Lam      4:15         4:18              4:23
    E|-(5)-----------------|-----------------|---------------------------|
    B|-(5)-----------------|-----------------|---------------------------|
    G|-(5)--/-7b----5-7-/9-|-----5-----------|---------------------------|
    D|-(7)-----------------|-5-7---5--7------|---------------------------|
    A|-(7)-----------------|------------7~~--|---3-3-3/5-5-5-5-5b~5b~5---|
    E|-(5)-----------------|-----------------|-5-------------------------|
    
      4:28               4:32               4:35
    E|-----------------|------------------|----------------------|
    B|-----------------|-10--10/12b-------|----------------------|
    G|-----------------|------------------|-7-5-7-7b---7b--7b----|
    D|---------5/7~----|------------------|----------------------|
    A|-3---------------|------------------|----------------------
  • Intro: LAm REm MI
    
       LAm                                               LAm
    e|--0-----------------------------------------------------------------------||
    B|--1-----------------------------------------------------------------------||
    G|--2-------0p2--------------------------------------------------0p2--------||
    D|--2-------0p2----2---------------------------------0-2---------0p2--------||
    A|--0---0-0----------3---0-5---3-3-2---2---0---0-2-3-------0-0--------------||
    E|---------------------0----------------------------------------------------||
    
       LAm                                               LAm
    e|----------------------------------------||
    B|----------------------------------------||
    G|-----------------------------0p2--------||
    D|-2---------------------------0p2--------||
    A|---3---0-5---3-3-2---2---0--------------||
    E|-----0----------------------------------||
    
    
     LAm     SOL6/SI    DO          RE    MI       LAm
    
  • Intro
    G|-------------------------|x2
    D|-------------------------|
    A|-------------5-55-5-7-77-|
    E|-5-55-5-55-5-------------|
    
    Verso
    G|--------------------------|x2
    D|--------------------------|
    A|------2-22-3-33-3-5-5-7-7-|
    E|-5-55---------------------|
    
    Puente
    G|-------------------------|
    D|-------------------------|
    A|-------------5-55-5-7-77-|
    E|-5-55-5-55-5-------------|
    
    Verso
    G|--------------------------|x2
    D|--------------------------|
    A|------2-22-3-33-3-5-5-7-7-|
    E|-5-55---------------------|
    
    Puente
    G|-------------------------|
    D|-------------------------|
    A|-------------5-55-5-7-77-|
    E|-5-55-5-55-5-------------|
    
    Coro 1
    G|-----|---------|
    D|-----|---------|
    A|-(5)-|-2-3-(5)-|
    E|-----|---------|
    
    Solo de Saxo
    G|---------------------|x4
    D|---------------------|
    A|-0-3-2---0-3-2-------|
    E|-------3-------0-3-0-|
    
     |--------------------------------|x2
     |--------------------------------|
     |-5-555-5------------------------|
     |---------1-1
  • +
    ¡Colabora con nosotros!
    Envíanos tu versión de esta canción

Etiqueta negra Lyrics
Venía rápido, muy rápido y se le soltó un patín
a él, que era rey de esta jungla,
se le soltó un patín...
Su corazón no, no era un hotel
aunque corria ese rumor
y hoy tiene una entre otras cruces
en este bosque siempre cruel.
Dejó un billete que pide a gritos que lo gasten

Como una hoja
derivó en tu mismo turbio rio.
Entre amuletos y talismanes su destino desafió
si nariz crecia de tamaño, prometía más.
No le robaba nunca nada a nadie,
a nadie en especial
ganó un orzuelo de tercer ojo
y su nariz sangró.
No hubo caricias para su celo moro
y ahora mira crecer las flores desde abajo.




[Etiqueta negra acordes][Etiqueta negra cifra]
© LaCuerda.net · legal notice · privacy · es · en · pt · contact us
DINAMICO