Guitar Chords » P »Patricio Rey y sus Redonditos de Ricota » Rock de las abejas (Tab)

Rock de las abejas
Patricio Rey y sus Redonditos de Ricota

Lyrics, Chords & Tabs for Guitar, Bass & Ukulele

  • e---7777-7-55-4-0-2---- 
    B-------------------0--
    
    e---7777-7-55-4-0-2----
    B-------------------5--
    
    
    Punteo 2:
    B----2-2-4-5--5-6-7--2--2-2-4-5--5-6-7-
    
    B-0--0-0-2-3--3-4-5--0--0-0-2-3--3-4-5-
    
    
    Punteo 3:
    e--7--7-5-2-7---5--5-3-0-5-
    
    
    Intro:
    (Punteo 1) x4
    (Sin la última nota hasta la cuarta vez tocado)
    
  • e-7-7-7-7-----5-5------4---0-2-----|----|
    B------------------------------0---|----|
    G----------------------------------|x4--|
    D----------------------------------|----|
    A----------------------------------|----|
    E----------------------------------|----|
    
    En la parte de saxo la guitarra la acompaña:
    
    e-------------------------------|---|
    B-------------------------------|---|
    G-2-2---2---3--2---3----5-------|X2-|
    D-------------------------------|---|
    A-------------------------------|---|
    E-------------------------------|---|
                                        ___
    e-------------------------------|--|   |
    B-------------------------------|--|   |
    G-------------------------------|x2|   |_x4
    A-3-3---3---5--3---5----7-------|--|   |
    
  • +
    ¡Colabora con nosotros!
    Envíanos tu versión de esta canción

Rock de las abejas Lyrics
Punteo 2:
Punteo 3:
(Punteo 1) x4
(Sin la última nota hasta la cuarta vez tocado)
(Punteo 2) x2
(Punteo 3) x1
(Punteo 1) x2
Negro, esto es mucho más lindo
después de la clandestinidad.
Riff: B B D E
(O Punteo 1)
x2
Los ojitos tristes te sientan
y un buen par de tarros te vas a comprar.
Cuando te de den tu astillita
vas a putear y putear
con tanto tiempo inactivo
el ñamfi se te enfrió y sos un punto más.
(Riff o Punteo 1)
Desde que fumás malvaloca
ni te acordás que fuiste un chabón,
al que mandó una pupila
acomodada en un celular.
Y va coreando la pobre,
dele carajo y putear,
te mando a cafúa gritando.
el súper-gordo-súper de Navidad.
La intro no está 100% bien, pero tampoco está mal.
Disculpen si es difícil de entender.
En el puente ('Cuando te den tu astillita...')
podés hacer el punteo 2 en vez de los acordes.
Saludos,
Angel Olivera
Mendoza - Argentina
Aguanten los Redondos!




[Rock de las abejas acordes][Rock de las abejas cifra]
© LaCuerda.net · legal notice · privacy · es · en · pt · contact us
DINAMICO