Guitar Chords » P »Patricio Rey y sus Redonditos de Ricota » Nuotatori Professionisti (Tab)

Nuotatori Professionisti
Patricio Rey y sus Redonditos de Ricota

Lyrics, Chords & Tabs for Guitar, Bass & Ukulele

  •   Em         Em         Em     G F#
    D-2-2-2-2-2--2-2-2-2-2--2-2--5-4-
    A-2-2-2-2-2--2-2-2-2-2--2-2--5-4-
    E-0-2-0-3-2--0-2-0-3-2--0-0--3-2-
    
                O sea: 
                (Em - Em/F# - Em - Em/G - Em/F#) x2
                Em x2 (dejálo sonar)
                G F#
                Y de nuevo.
    
    
    Riff 2
    e-12------------
    B----12-10-8-10-
    
    ¯¯¯¯¯¯¯¯¯¯¯¯¯¯¯¯¯¯¯¯¯¯¯¯¯¯¯¯¯¯¯¯¯¯¯¯¯¯¯¯¯¯¯¯¯¯¯¯¯¯¯¯¯¯¯¯¯¯
    
    Intro:
                       Em   G F#
    
  • E E... G F# E (C/notas: F#-E-G-F#-E etc.)
    
    Cuando la marea los quiere tapar en el corazón de la noche
                G            F#      E
    Pagan con promesas los nenes de oro
    
    Riff
    
          G        F#        E
    Cómo actúan esos tipos felices
    Cómo brillan sus muecas festivas
    Si acarician pasteles de culo
    Sanos, muy fuertes y azucarados.
    
    A        G            F
    Viven temiendo despertar    de sus sueños
    Van de vampiros de arrabal
    
    D       C
    Adidas digitales
    
  • E|-----------------||--------------------------------------------------||--|
    B|-----------------||--------------------------------------------------||--|
    G|-----------------||-----------------------------%--------------%-----||x4|
    D|-----------------||--------------------------------------------------||--|
    A|-----------------||---(2)-(5)---(4)--2-----2------(5)--2---------(5)-||--|
    E|-0-0-0-0-0-0-0-0-||-0-(0)-(3)---(2)--0-0-2-0-3----(3)--0-0-2-3---(3)-||--|
    
    BAJO:
    G|-----------------||--------------------------------------------------||--|
    D|-----------------||--------------------------------------------------||x4|
    A|-----------------||--------------------------------------------------||--|
    E|-----------------||-0-(0)-(3)---(2)--0-0-2-0-3----(3)--0-0-2-3---(3)-||--|
    
    Guitarra 2:                 SOL    FA#
    E|--------------------|--|
    B|--------------------|--|
    G|--------------------|X4|
    D|-------5555--4444---|--|
    A|-------5555--4444---|--|
    E|-------3333--2222---|--|
    
  • Intro
    G|---------------------|
    D|---------------------|
    A|---------------------|
    E|-00000000---0-0--3-2-|
    
     |------------------------------------|x4
     |------------------------------------|
     |------------------------------------|
     |-0-2-0-3-2-0--0-2-0-3-2-0--0-0--3-2-|
    
    Verso
    G|---------------------|-----------|
    D|---------------------|-----------|
    A|-3-----5----3----5---|-3----5----|
    E|----3----2----3----2-|---3----2--|
    
    Coro
    G|----------------------------------|x4
    D|----------------------------------|
    A|----------------------------------|
    E|-00-3-2---0-2-0-3-2-0-0-2-0-3-2-0-|
    
    Verso
    G|-----------|----------|-------------|
    D|-----------|----------|-------------|
    A|-3-----5---|-3----5---|-3----5------|
    E|----3----2-|---3----2-|---3-----2-0-|
    
    Verso 2 ('viven temiendo...')
    G|--------------------|x2
    D|--------------------|
    A|-7(x7)-5(x7)-3(x14)-|
    E|--------------------|
    
     |-------------|x3 |-----|
     |-------------|   |-----|
     |-5(x7)-3(x7)-|   |-----|
    
  • +
    ¡Colabora con nosotros!
    Envíanos tu versión de esta canción

Nuotatori Professionisti Lyrics
Cuando la marea los quiere tapar en el corazón de la noche
Pagan con promesas los nenes de oro
Riff
Cómo actúan esos tipos felices
Cómo brillan sus muecas festivas
Si acarician pasteles de culo
Sanos, muy fuertes y azucarados.
Viven temiendo despertar de sus sueños
Van de vampiros de arrabal
Adidas digitales
Pepsi inyectable (dame más, dame más)
Qué milagroso día el de hoy
Riff
Le hacen precio a los buenos amigos
por un par de tatuajes masocas
y pagan con promesas los nenes de oro.




[Nuotatori Professionisti acordes][Nuotatori Professionisti cifra]
© LaCuerda.net · legal notice · privacy · es · en · pt · contact us
DINAMICO