Guitar Chords » P »Patricio Rey y sus Redonditos de Ricota » Blues de la libertad (Tab)

Blues de la libertad
Patricio Rey y sus Redonditos de Ricota

Lyrics, Chords & Tabs for Guitar, Bass & Ukulele

  •     E A  D  G  B  E
    G7: x 10 9  10 8  x
    C7: x 3  2  3  1  x
    D7: x 5  4  5  3  x
    
    El tema está arpegiado con estos acordes.
    
         G7                   C7
    Mi amor, la libertad es fiebre, 
           G7                      C7
    es oración, fastidio y buena suerte
    C7                         D7
    que está invitando a zozobrar.
    D7                        C7
    Otra vulgaridad social igual, 
    siempre igual, todo igual
               D7
    todo lo mismo...
    
    Mi amor, la libertad no es fantástica.
    
  •     RE7                  DO7              SOL 7         DO7      SOL7 - SOL9    RE7     FA#7  G7 
    E|------------------|---------------|--------------|----------|------10------|------------------|
    B|-----3------3-----|----1------1---|-------8------|----1-----|------10------|-3-3-3--3/7--7/-8-|
    G|----5-5----5-5----|---3-3----3-3--|-----10-10----|---3-3----|---10----10---|-5-5-5--5/9--9/10-|
    D|---4---4--4---4---|--2---2--2---2-|/---9------9/-|--2---2-/-|--9---------9/|-4-4-4--4/8--8/-9-|
    A|--5-----5-------/-|-3-----3-------|/-10--------/-|-3------/-|10-----------/|-5-5-5--5/9--9/10-|
    E|------------------|---------------|--------------|----------|--------------|------------------|
    
    BAJO:                    entra acá=>     SOL          DO         SOL            RE        Fa# SOl
    G|------------------|---------------|--------------|----------|--------------|------------------|
    D|------------------|---------------|--------------|----------|--------------|------------------|
    A|------------------|---------------|-----------1-2|(3)-------|----------3-4-|(5)5-5--5/--------|
    E|------------------|---------------|-(3)----------|-------5-4|(3)-----------|-------------2/3--|
    
    
    VERSO 1:
    
           SOl9                (DO7-DO9)
    Mi amor, la libertad es fiebre, 
         SOL9                   (DO7_DO9)
    
  • Intro:
    
    G|---5-7-5---5-7-5--|---3-5-3---3-5-3--|
    D|--4-----4-4-----4-|--2-----2-2-----2-|
    A|-5-------5--------|-3-------3--------|
    E|------------------|------------------|
    
    G|-------------------|------------------------|
    D|-------------------|-----2-2g5-5-7-5-7------|
    A|-----2-2g5-5-7-5-7-|-3-3--------------------|
    E|-3-3---------------|-------------------2-3--|
    
    (Mi amor...)1ra estrofa
    
    G|-------------------|------------------------|
    D|-------------------|-----2-2g5-5-7-5-7------|
    A|-----2-2g5-5-7-5-7-|-3-3--------------------|
    E|-3-3---------------|------------------------|
    
    G|-------------------|----------------3-4-5---|
    D|-------------------|-----2-2g5-5-7----------|
    A|-----2-2g5-5-7-5-7-|-3-3--------------------|
    E|-3-3---------------|------------------------|
    
    G|-------------------|------------------------------------------|
    D|---------4g7-9-7-9-|----2-2g5-5-7-5-7-------------------------|
    A|-3-4-5-5-----------|-3-3------------------222-333-444-5g17----|
    E|-------------------|---
  • Intro:
       G         C        G         D         F G
    G----------|--------|---------|----------------|
    D|---------|-----0--|---------|----------------|
    A|------1-2|-3------|-----3-4-|-5-5-5--5-------|
    E|-3-------|-------4|-3-------|-----------2-3--|
    
    Verso:
        G             C            G                   C
    G|-------------------0------|--------------------|-----0----|
    D|-------0----0-----2--2----|--------0------0----|---2---2--|
    A|-----2--2-----4-3---------|-----2-----2------4-|-3--------|
    E|--3--------------------5-4|--3-----------------|----------|
    
    
    Mi amor, la libertad es fiebre, 
    es oracion, fastidio y buena suerte.
    
    Estribillo:
    
    BAJO:  c                                       D              
    G|------------0-------|--------|-------------|---------|-----0-----|----------------|
    D|---------2-----2----|------0-|--4---7---4--|-0-------|--2-----2--|----------------|
    A|1-2--3--------------|-3-4----|-------------|---4--3--|-----0-----|-5-5-5-5-5------|
    E|---------
  • +
    ¡Colabora con nosotros!
    Envíanos tu versión de esta canción
  • Tutorial
    HD
    Explicado - Como tocar "Blues de la libertad" de en el bajo tutorial#193
    17:37

Blues de la libertad Lyrics
El tema está arpegiado con estos acordes.
Mi amor, la libertad es fiebre,
es oración, fastidio y buena suerte
que está invitando a zozobrar.
Otra vulgaridad social igual,
siempre igual, todo igual
todo lo mismo...
Mi amor, la libertad no es fantástica.
No es tormenta mental que da el prestigio loco.
Es mar gruesa y oscuridad.
Y el chasquido que quiere proteger
ese grito que no es
todo el grito...
Mi amor, la libertad es fanática,
ha visto tanto hermano muerto,
tanto amigo enloquecido,
que ya no puede soportar
la pendejada de que todo es igual,
siempre igual, todo igual
todo lo mismo...
Mi amor, la libertad es fiebre,
es oración, fastidio y buena suerte
que está invitando a zozobrar.
Otra vulgaridad social igual,
siempre igual, todo igual
todo lo mismo...
Aguanten los redondos!




[Blues de la libertad acordes][Blues de la libertad cifra]
© LaCuerda.net · legal notice · privacy · es · en · pt · contact us
DINAMICO