Guitar Chords » P »Panda » Sólo a terceros (Tab)

Sólo a terceros
Panda

Lyrics, Chords & Tabs for Guitar, Bass & Ukulele

  • e--------------------------------
    B------0-----0---------0-----0---
    G----0-----0-----0---0-----0----0
    D--2-----2-----2---1-----1----1--
    A--------------------------------
    E--------------------------------
    
    e-----------------------0------0-
    B------0-----0--------0---0----0-
    G----0-----0----0---0-------0--0-
    D--0-----0----0----------------2-
    A-----------------4--------------
    E--------------------------------
    
           Bm
    e---------------------
    B---------------------
    G-4-44444444444-------
    D-4-44444444444-------
    A-2-22222222222-------
    
  • Intro: F-A#
    
    
    (No se toca)
    Tal vez no sucedio
    tal vez esto sea una ilusion
    tal vez sea una obra dramaturgica
    con actores y tu eres la principal
    y ese de abajo
    
             A#        F        C      Dm
    Es tu secundario inicio la funcion que pasara
        A#   F               C
    al final de este drama sexual
           A#        F         C     Dm
    valdra la pena esperar al final me agrada sentir
      A#   F           C
    dolor ven a contarmelo
    
    Coro
    
  • Afinacion standard
    
    
    Intro:          guitarra 1
    e|------------------|-----------------|----------------|-------------|
    B|------------------|-----------------|----------------|-------5-----|
    G|------4-----4-----|-----4-----4-----|-----4----4-----|-----4---4---|
    D|----5-----5-----5-|---5-----5-----5-|---5----5-----5-|---5-------5-|
    A|--7-----7-----7---|-6-----6-----6---|-5----5-----5---|-4-----------|
    E|------------------|-----------------|----------------|-------------|
    
    e|--0---|-------------------------|
    B|--1---|-------------------------|
    G|--0---|--444444444444444444-----|
    D|--2---|--444444444444444444-----|
    A|--3---|--222222222222222222-----|
    E|--0---|-------------------------|
                ************
    
    
    
    Verso:          guitarra 1 y 2
    
    e|-4----------------------4----------------------|
    B|-4h5p4------------------4h5p4------------------|
    G|-4----------------------4----------------------|
    D|-------6666666644444444-------66666666---------|x4
    A|---------------------------------------66
  • e--------------------------------
    B------0-----0---------0-----0---
    G----0-----0-----0---0-----0----0
    D--2-----2-----2---1-----1----1--
    A--------------------------------
    E--------------------------------
    
    e-----------------------0------0-
    B------0-----0--------0---0----0-
    G----0-----0----0---0-------0--0-
    D--0-----0----0----------------2-
    A-----------------4--------------
    E--------------------------------
    
    e---------------------
    B---------------------
    G-4-44444444444-------
    D-4-44444444444-------
    A-2-22222222222-------
    E---------------------
    
  • Ya SABen EN BEMoL ChekEN la KANZiOoN
    
    http://www.youtube.com/watch?v=7HdQE-63V08
    
    Intro.
    
    E------------------------------------------------
    B------1----1----1----1----1-------1---1---------
    G----1----1---------1----1----1---1---1---1------
    D--3----3----3----2----2----2----1---1---1-------
    A------------------------------------------------
    E------------------------------------------------
    
    E--------1----1----------------------------------
    B------1---1--1----------------------------------
    G----1--------1----------------------------------
    D--0----------3----------------------------------
    A------------------------------------------------
    E------------------------------------------------
    
    Verso 1.:.
    E------------------------------------------------
    B------------------------------------------------
    G—5~-5-5-5-5-5-5-5-5-5-5-5-5-5-5-----------------
    D—5~-5-5-5-5-5-5-5-5-5-5-5-5-5-5-----------------
    A—3~-3-3-3-3-3-3-3-3-3-3-3-3-3-3-----------------
    E-------------------------------------------
  • aqui de toluca dejando un rolon de panda espero y les guste la sake al
    puro oido y los arreglos esta correctos solamente es cuestion de q
    agarren bien el ritmo y los tiempos y asi sale
    esta muy facil
    
    Afinacion: EADG
    
    Intro: empiesa cuando entra la bateria y todo
    
    "Tal ves no sucedio...."
    G)-------------------------------------
    D)-------------------------------------
    A)---------------4-4-4-----------------
    E)0-0-0--44444444------44444444--------
                                              x2
    
    G)--------------------------------------
    D)--------------------------------------
    A)----------------4-4-4-222222----------
    E)0-0-0--44444444-----------------------
    
    aqui es el cambio de ritmo
    
    "Es tu secundario inico la funcion...."
    
    G)-------------------------------------
    D)-------------------------------------
    A)---------------222222--44-77---------
    E)555555-0000000---------------7-------
    
    "De este drama sexual.........."
    
    G)------------------------------------
    D)----------------------------------
  • BUENO EN VERDAD NO TOCO EL BAJOO PUES
    SAQUE A OIDO ESTA ROLA ACOMODEN BIEN LOS TIEMPOS
    Y ESTARA BIEN, ESTA AFINACION NO SE SI ES LA CORRECTA PUEDEN
    USAR LA ESTANDAR SI GUSTAN SALE LO MISMO PERO MEJOR
    UTILESEN EL BEMOL SALE
    
    
    
    
    Verso 1
    
    F#-------------------------------------------------------------------
    G#-------------------------------------------------------------------
    C#-----------------------55555555-----0000000------------------------
    D#-1111111-----55555555----------------------------------------------
    
    F#-------------------------------------------------------------------
    G#-------------------------------------------------------------------
    C#-----------------------55555555-----3333333------------------------
    D#-1111111-----55555555----------------------------------------------
    
    F#-------------------------------------------------------------------
    G#-------------------------------------------------------------------
    C#-----------------------55555555-----0000000-----------------
  • +
    ¡Colabora con nosotros!
    Envíanos tu versión de esta canción

Sólo a terceros Lyrics
Tal vez no sucedió Tal vez esto sea una ilusión
Tal vez sea una obra dramatúrgica
Con actores y tú eres la principal
Y este de abajo es tu secundario Inició la función!
¿Que pasará al final de este drama sexual?
¿Valdrá la pena esperar al final?
Me agrada sentir dolor Ven a contármelo.
Que quiero escuchar el no! Quiero escuchar el no!
Pones tu cara de querer decir lo siento.
El te dejó sin aliento. Quiero escuchar el no!
Tienes talento para dar placer Pero sólo a terceros!
¿Cómo se sintió al tocar alguien que no era yo?
Al rozar las sábanas con alguien más
Se que pensaste en mí Espero que lo hayas gozado!
Y aunque nunca te alejaste de mí
Siempre existió temor que cometas fraude mi amor
Y ahora comprendo que mi corazón
Merece una explicación Ven a explicárselo!
Que quiero escuchar el no! Quiero escuchar el no!
Pones tu cara de querer decir lo siento.
El te dejó sin aliento. Quiero escuchar el no!
Tienes talento para dar placer Pero sólo a terceros!
parte 1 (cuatro veces)
parte 2 (dos veces)
No me arrepiento de siempre dudar Cuestionar tu fidelidad
Y hasta tu forma de mirar Y la amargura futura soy yo
El siempre presente yo Pues no quiero perdermelo
Y quiero escuchar el no! quiero escuchar el no!
Pones tu cara de querer decir lo siento.
Que ya caes en lo burlesco. Quiero escuchar el no!
tienes talento para dar placer Pero sólo a terceros!
Pz esta rola la corregí de la anterior porke me equivokee
En algunas cosillas en el coro como en la letra de la canción
Anterior pro pz ohala les guste esta corregida y pz arriba panda
ia solo faltan 9 dias para ke salga el dizko pz kamara vatos.
pz la rola zta kn madre pz ojala les guste eztos zon los acordez
pz ojala les sirva pz si tienen dudas "rudyzzim_zoe@hotmail.com"
bno pz ahi votan ezos kamara




[Sólo a terceros acordes][Sólo a terceros cifra]
© LaCuerda.net · legal notice · privacy · es · en · pt · contact us
DINAMICO