Guitar Chords » P »Panda » Procedimientos para llegar a un comun acuerdo (Tab)

Procedimientos para llegar a un comun acuerdo
Panda

Lyrics, Chords & Tabs for Guitar, Bass & Ukulele

  • G#m               E       B
    Yo se que soy poco superficial,
                E            F#      G#m
    Y que me manejo en la promiscuidad,
    
    
    G#m
    Se que quieres, yo también,
    (Sí, te voy a hablar)
    E
    Te pongo a sudar y lo finges bien,
    (con la verdad)
    G#m
    Si quieres prudencia a nadie le diré,
    (Para no perder)
    E               F#           E
    
    Y con elegancia yo te lo daré,
    
    
    
  • G#m               E  F#     G#m
    Yo se que soy poco superficial,
                E            F#      G#m
    Y que me manejo en la promiscuidad,
    
    
    G#m
    Se que quieres, yo también,
    (Sí, te voy a hablar)
    E
    Te pongo a sudar y lo finges bien,
    (con la verdad)
    G#m
    Si quieres prudencia a nadie le diré,
    (Para no perder)
    E               F#           E
    
    Y con elegancia yo te lo daré,
    
    
    
  • 1.D#
    2.A#
    3.F#
    4.C#
    5.G#
    6.D#
    
    
    
    
    Verso 1
    
    
    Am               F          C
    Yo se que soy poco superficial
                F              G    Am
    Y que me manejo en la promiscuidad
    Am
    Se que quieres, yo también,
    (Sí, te voy a hablar)
    
  • --------3------3-----|
    ---------------------|
    
    
    “ mientras se toca el riff del coro, las notas del
     acompañamiento se tocan con distorsión y en octavas”
    
    Riff del coro:
    12-13-13-12-----12-13-13-12----|-12-13-13-12----12-13-13-12-----|
    -------------10--------------10|--------------13------------13--|
    -------------------------------|--------------------------------|
    -------------------------------|--------------------------------|
    -------------------------------|--------------------------------|
    -------------------------------|--------------------------------|
    
    12-13-13-12-----12-13-13-12----|-12-13-13-12--------------------|
    -------------10--------------10|-------------13h15-13-12-13-12--|
    -------------------------------|--------------------------------|
    -------------------------------|--------------------------------|
    -------------------------------|--------------------------------|
    
  • Procedimientos para llegar a un común acuerdo
    
    La afinación está en bemol
    Si no pueden afinarla en bemol toquen
    toda la canción un traste atrás.
    
    Intro
    
    0:00
    Guit. 1
    Yoooo...
    eb|-0-000-000-00000---0-000-000-00000-|
    Bb|-1-001-001-00111---1-111-111-11111-|
    Gb|-2-222-222-22222---0-000-000-00000-|x2
    Db|-2-222-222-22222---2-002-002-00222-|
    Ab|-0-000-000-00000---3-333-333-33333-|
    Eb|-----------------------------------|
    
    0:13
    Guit. 1
    Se que quieres yo también...
    eb|-0-000-000-00000---0-000-000-00000-|
    Bb|-1-001-001-00111---1-111-111-11111-|
    Gb|-2-222-222-22222---0-000-000-00000-|
    Db|-2-222-222-22222---2-002-002-00222-|
    Ab|-0-000-000-00000---3-333-333-33333-|
    Eb|-----------------------------------|
    
    0:19
    eb|-0-000-000-00000---0-000---333333333-|
    Bb|-1-001-001-00111---1-111---333333333-|
    Gb|-2-222-222-22222---0-000---000000000-|
    Db|-2-222-222-22222---2-002---000000000-|
    Ab|-0-000-000-00000---3-333---222222222-|
    Eb|---------------------------333333333-|
    
    0:24
    Coro
    Guit. 1
    Se que me quieres
  • bueno he visto qye hay muchas transcripciones, pero todas
    tiene errorsitos, por eso decidi hacer esta, 100% bien
    
    primero hay que aclarar que la guitara se afina medio tono
    abajo
    
    bueno aqui va:
    
    intro:
    
    Yo se que soy poco superficial
    y que me manejo en la promiscuidad.
    
    eb|-0-x-0-0-0-x-0-0-0-x-0-0-0-0-0---0-x-0-0-0-x-
    Bb|-1-x-0-0-1-x-0-0-1-x-0-0-1-1-1---1-x-1-1-1-x-
    Gb|-2-x-2-2-2-x-2-2-2-x-2-2-2-2-2---2-x-2-2-2-x-
    Db|-2-x-2-2-2-x-2-2-2-x-2-2-2-2-2---3-x-2-2-3-x-
    Ab|-0-x-0-0-0-x-0-0-0-x-0-0-0-0-0---------------
    Eb|---------------------------------------------
    
    
    
    eb|-0-0-0-x-0-0-0-0(0)-|
    Bb|-1-1-1-x-1-1-1-1(0)-|
    Gb|-2-2-2-x-2-2-2-2(2)-| (se repite siempre esta progresion
    Db|-2-2-3-x-2-2-3-2(2)-|  en el verso varias veces)
    Ab|---------------0(0)-|
    Eb|--------------------|    (no se asusten, si no quieren no
                                 hagan los palmuting, son adorno)
    
    
    el verso viene con esta estructura en los acordes (la del intro)
    
    
    se que quieres yo tambien (si te voy a hablar con la
  • Eb|-1111111----------1111111------3333-|
    Bb|-3333333-00000000-3333333-3333-5555-|
    Gb|-3333333-22222222-3333333-5555-5555-|
    Db|---------22222222---------5555------|
    Ab|------------------------------------|
    Eb|------------------------------------|
     x2
    
    Verso
    Eb|-0-|-0-0-0--0-0-0--0-0-0--|-0-|-0-0-0--0-0-0--0-0-0-|
    Bb|-1-|-1-0-1--1-0-1--1-0-1--|-1-|-1-1-1--1-0-1--1-0-1-|
    Gb|-2-|-2-2-2--2-2-2--2-2-2--|-2-|-2-0-2--2-0-2--2-0-2-|
    Db|-2-|-2-2-2--2-2-2--2-2-2--|-3-|-3-3-3--3-3-3--3-3-3-| x4
    Ab|-0-|-0-0-0--0-0-0--0-0-0--|-0-|-0-0-0--0-0-0--0-0-0-|
    Eb|-0-|-0-0-0--0-0-0--0-0-0--|-0-|-0-0-0--0-0-0--0-0-0-|
    
    Coro
    Guitarra 1
    Eb|-13-13-12-12---------------13-13-12-12--------------|
    Bb|-------------10-10-10-10----------------10-10-10-10-|
    
  • F#||--------------------------------------|
    C#||---7----7---7--7------3---3---3--3----|
    G#||--------------------------------------|
    D#||--5--55---5--55----1--11---1--11------|
    
    
    F#||--------------------------------------|
    C#||---7----7---7--7------3---3-----------|
    G#||--------------------------------------|
    D#||--5--55---5--55----1--11---1--88888---|
    
    
    F#||------------------------------------------------------------|
    C#||------------------------------------------------------------|
    G#||--------------333333333333----------------------------------| x2
    D#||-111111111111---------------111111111111----555555---333333-|
    
    
    F#||--------------------------------------|
    C#||---7----7---7--7------3---3---3--3----|
    G#||--------------------------------------| x3
    D#||--5--55---5--55----1--11---1--11------|
    
    
    F#||--------------------------------------|
    C#||---7----7---7--7------3---3-----------|
    G#||--------------------------------------|
    D#||--5--55---5--55----1--11---1--88888---|
    
    
    F#||------------
  • +
    ¡Colabora con nosotros!
    Envíanos tu versión de esta canción

Procedimientos para llegar a un comun acuerdo Lyrics
Yo se que soy poco superficial,
Y que me manejo en la promiscuidad,
Se que quieres, yo también,
(Sí, te voy a hablar)
Te pongo a sudar y lo finges bien,
(con la verdad)
Si quieres prudencia a nadie le diré,
(Para no perder)
Y con elegancia yo te lo daré,
Se que me quieres tener,
Y yo te prometo,
Prometo no hablarte de amor
Me quieres tener,
Tu cuerpo descomunal,
Sin indumentaria,
Lo quiero con todo respeto palpar,
Aaahh tu nombre olvidé yo preguntar,
Dónde vives y cómo te gusta más,
Tengo que advertirte, tienes que saber
(Quiero dejar algo)
Que igual y no estaré al amanecer
(en claro ya)
Crees que solo te quiero para una vez
(Deseo hacerlo todo)
Pero sabes qué, dos estaría bien
(Todo nada más)
Se que me quieres tener,
Y yo te prometo,
Prometo no hablarte de amor
Me quieres tener,
Tu cuerpo descomunal,
Sin indumentaria,
Lo quiero con todo respeto palpar,
Sensual,
La depravación en mi es..
Sensual,
Ruge mi nombre así,
Sensual.
La depravación en mi es..
Sensual,
Ruge mi nombre así,
Sensual.
Tengo que advertirte, tienes que saber
Que igual y no estaré al amanecer
Crees que solo te quiero para una vez
Pero sabes qué, dos estaría bien
Se que me quieres tener,
Y yo te prometo,
Prometo no hablarte de amor
Me quieres tener,
Tu cuerpo descomunal,
Sin indumentaria,
Lo quiero con todo respeto palpar,




[Procedimientos para llegar a un comun acuerdo acordes][Procedimientos para llegar a un comun acuerdo cifra]
© LaCuerda.net · legal notice · privacy · es · en · pt · contact us
DINAMICO