Guitar Chords » P »Panda » Amnistía (Tab)

Amnistía
Panda

Lyrics, Chords & Tabs for Guitar, Bass & Ukulele

  • Intro: Am-F-C-G x2
    
    Am           F            C
    yo manifestare que ultimamente,
               G                Am
    cosas indecentes que yo cometi,
           F
    años ayer,
             C                       G
    han regresado, me estan a tormentando
                 F
    por eso entendi
            C          G
    si el poder tuviera
                      Am
    del pasado cambiar,
             F
    Sin dudar
             C        G
    restituiria su vida,
    
  •     G*     F*     A*     E*      D*      C*    C**
     e|-7-|  |-5-|  |-8-|  |-12-|  |-10-|  |-8-|  |-8-|
     B|-8-|  |-6-|  |-5-|  |-5--|  |-5--|  |-5-|  |-8-|
     G|-7-|  |-5-|  |-5-|  |-5--|  |-5--|  |-5-|  |-5-|
     D|-5-|  |-7-|  |-7-|  |-5--|  |-5--|  |-5-|  |-5-|
     A|xxx|  |xxx|  |xxx|  |xxxx|  |xxxx|  |xxx|  |xxx|
     E|xxx|  |xxx|  |xxx|  |xxxx|  |xxxx|  |xxx|  |xxx|
    
    
    intro: A* F* E* D* C* G*  x2
    
    A*           F*            E*        E*D*C*  G*
    yo manifestare que ultimamente, cosas indecentes que yo
       A*        F*            E*        E*D*C*  G*
    cometi,años ayer, han regresado, me estan a tormentando por eso
        F*          C**        G*             A*
    entendi si el poder tuviera del pasado cambiar,
          F*         C**        G*                A*              F*
    Sin dudar restituiria su vida,con la mia pues ya,no la ocupo mas
    
    
  • Intro: E C G D x2
    
    E             C           G                     D             E
    Yo manifestaré que últimamente cosas indecentes que yo cometí
             C                G                     D           C
    Años ayer han regresado, me están atormentando por eso entendí
    
    Rasgueo Rápido
    
    C       G          Bm               C
    Si el poder tuviera del pasado cambiar
           C            G      Bm
    Sin dudar restituiría su vida
                    C    D       C
    Con la mía pues ya no la ocupo / más...
    
    Estilo Blues...
    
    E C G D x2
    
    
  • Intro: Em C G D
    
    Pp y Artur: Em C G D
    
    e|------------------------------------------------||
    B|--5/8/10--10~--12b---10-8-8h10-8~--5-3/1/3------||
    G|------------------------------------------------||
    D|------------------------------------------------||
    A|------------------------------------------------||
    E|------------------------------------------------||
    
    
    e|---------------------------------------||
    B|---------------------------------------||
    G|------------------------5-7-7/9-5-5~---||
    D|--7-5---------------5-7----------------||
    A|------7-5-3-0-3-5-7--------------------||
    E|---------------------------------------||
    
    
    
  • (Em  C  G  D)x2
    
    Em      C         G
    Yo manifestare que últimamente,
    D
    Cosas indecentes que yo cometí,
    Em
    Años ayer,
      C          G                     D
    Han regresado, me están tormentando
    
    Por eso entendí
    C           G   Bm                  C
    Si el poder tuviera del pasado cambiar,
                      G            Bm
    Sin dudar restituiría su vida,
                     C
    Con la mía pues ya,
       D       C
    No la ocupo mas
    
  •            Am                                   F
    e|-8--8-8-8-8-8-|-8-8-8--8--8--|-8--8--8--8--8--|-12--12-12-12-12-12-|
    B|-8--8-8-8-8-8-|-8-8-10-10-10-|-10-10-10-10-10-|-13--13-13-13-13-13-|
    G|-9--9-9-9-9-9-|-9-9-10-10-10-|-10-10-10-10-10-|-12--12-12-12-12-12-|
    D|--------------|--------------|----------------|--------------------|
    A|--------------|--------------|----------------|--------------------|
    E|--------------|--------------|----------------|--------------------|
    
             C             G
    e|-10--8--7--7-7-|-7-7-7--7-7-|
    B|-13--13-8--8-8-|-8-8-8--8-8-|
    G|-12--12-7--7-7-|-7-7-7--7-7-|
    D|---------------|------------|
    A|---------------|------------|
    E|---------------|------------|
    
    VERSO 1
    
           Am             F                           C
    e|-8--8-8-8-8-8-|-8-8-8--8--8--|-8--8--8--8--8--|-12--12-12-12-12-12-|
    
  • Esta tablatura la transcribi yo gracias a la ayuda de un videotutorial
    que encontré en youtube:
    http://www.youtube.com/watch?v=z1SrG9yW2Rw&feature=related
    al usuario que lo grabo es quien merece los créditos y le doy las
    gracias, este tab lleva el primer y segundo verso de la guitarra de
    Arturo, solamente le falta una partecita del verso final, para ver la
    versión del videotutorial [que aclaro no es mio] pueden entrar a la
    dirección antes dada.
    
    
    1er Verso
    
    e|------------------------------------------------||
    B|--3/7/10--10~--12b---10-8-8h10-8~--6~-----------||
    G|--------------------------------------5-5h7-5~--||
    D|------------------------------------------------||
    A|------------------------------------------------||
    E|------------------------------------------------||
    
    
    e|---------------------------------------||
    B|---------------------------------------||
    G|------------------------5-7-7/9-5-5~---||
    D|--7-5---------------5-7----------------||
    A|------7-5-3-0-3-5-7-----------------
  • +
    ¡Colabora con nosotros!
    Envíanos tu versión de esta canción

Amnistía Lyrics
yo manifestare que ultimamente,
cosas indecentes que yo cometi,
años ayer,
han regresado, me estan a tormentando
por eso entendi
si el poder tuviera
del pasado cambiar,
Sin dudar
restituiria su vida,
con la mia pues ya,
no la ocupo mas
Es mucho pretender el ser indultado,
si estoy temblando mas no llorare,
no puedo borrar todos los llantos,
cause mucho daño,
quiero compenzar
yo le instalaria mucha felicidad,
Veinte veces lo que ella tenia,
si lo tenia en realidad
es verdad que cada anochecer,
cada despertar,
nunca logro,
olvidar su cara,
suplicando piedad,
perdoname ya




[Amnistía acordes][Amnistía cifra]
© LaCuerda.net · legal notice · privacy · es · en · pt · contact us
DINAMICO