Guitar Chords » M »La Mosca Tse-Tse » Todos tenemos un amor (Tab)

Todos tenemos un amor
La Mosca Tse-Tse

Lyrics, Chords & Tabs for Guitar, Bass & Ukulele

  • F#m  B  E  C#  F#m  B  E  C#  ( 2 veces)
    
         F#m              B
    Casi amante, casi amiga
                    Abm
    casi todo, casi loca
    C#                     F#m
    espera mi regreso como pocas
         B                E  C#
    cada lunes al amanecer.
    
            F#m           B
    Y en el cuarto, nos amamos,
                          E
    nos odiamos, nos mareamos
    C#                   F#m     B
    para ella nada es demasiado
                   E     C#
    no me deja dormir.
    
    
  • Bueno, como estaba bastante mal la anterior transcipción la cambié.
    Creo que está bastante bien, falta la parte final, cuando tocan las
    trompetas, pero lo demás está... salu2
    
    
    INTRO: en F#m
    
      1)
    e|---9----9---9---9--12--|  ---9----9----9----9------|
    B|-/9---12--12--12-------|  -9---12--12---12----9-12-|
    G|-----------------------|  -------------------------|
    
    e|------Bis---------------|   -----------------------------|
    B|------------------------|   --/9-------r9~--12-----------|
    G|------------------------|   ----11--9----------11-9------|
    D|------------------------|   -------------------------11--|
    
    
    
      2)
    E|---9-----9---9---9--12--|  ---9---9---9------16--12-----|
    B|-/9---12--12--12--------|  -9---12--12---12-------------|
    G|------------------------|  -----------------------------|
    
    e|------Bis---------------|   -----------------------------|
    B|------------------------|   --/9-------r9~--12-----------|
    G|------------------------|   ----11--9----------11-9------|
    D|--------------
  •       B --------14-12-14-12-14-12-14----
      1   G --9/13--------------------------
          D --------------------------------
          A --------------------------------
          E --------------------------------
    
          E -------------------------------- 
          B --------14-12-14-12-14-12-------
          G --9/13---------------------14-13
      2   D --------------------------------
          A --------------------------------
          E --------------------------------
    
          E ------------------------------12---------------------------------
          B --------14-12-14-12-14-12-14-----12------------------------------
          G --9/13------------------------------13-11----11/13----11/13-11---
      3   D ------------------------------------------14-------14----------11
          A -----------------------------------------------------------------
          E -----------------------------------------------------------------
    
    
  •     E -7/9-7-9-7-9-7-9-12-------------
        B --------------------------------
    1   G --------------------------------
        D --------------------------------
        A --------------------------------
        E --------------------------------
    
        E -7/9-7-9-7-9-7------------------
        B ---------------9----------------
        G ---------------11-----------------
    2   D --------------------------------
        A --------------------------------
        E --------------------------------
    
        E -7/9-7-9-7-9-7-9-12----------7-9-7-5--
        B -------------------9-7---7-9----------
    3   G -------------------11--9--------------
        D --------------------------------------
        A --------------------------------------
        E --------------------------------------
    
  • +
    ¡Colabora con nosotros!
    Envíanos tu versión de esta canción

Todos tenemos un amor Lyrics
Casi amante, casi amiga
casi todo, casi loca
espera mi regreso como pocas
cada lunes al amanecer.
Y en el cuarto, nos amamos,
nos odiamos, nos mareamos
para ella nada es demasiado
no me deja dormir.
Todos tenemos un amor
que nos complica la vida
todos tenemos una amor
que nos rompe el corazón
y nos complica la vida. uehhh...
... Intermedio.
Yo que siempre
me estoy llendo con la musiquita
Dios me dá y el amor me lo quita
voy tratando de vivir.
Como un loco que perdió
la cordura de a poco
voy colgado de todos los focos
esperando ver su luz.
Amanece que no es poco
ella loca y yo tan loco
ojalá que en la próxima vida
ella sea mi mujer.
Todos tenemos un amor
que nos complica la vida
todos tenemos una amor
que nos rompe el corazón
y nos complica la vida. ay, ay ..... [bis]
... Intermedio
FINAL:
Todos tenemos un amor
que nos complica la vida
todos tenemos una amor
que nos rompe el corazón
y nos complica la vida.
Excelente Cancion!!!!
Saludo colombiano!!!
Arriba deportivo cali!!!!
Pazzz!!!




[Todos tenemos un amor acordes][Todos tenemos un amor cifra]
© LaCuerda.net · legal notice · privacy · es · en · pt · contact us
DINAMICO