Guitar Chords » M »La Mosca Tse-Tse » Muchachos, hoy nos volvimos a ilusionar (Tab)

Muchachos, hoy nos volvimos a ilusionar
La Mosca Tse-Tse

Lyrics, Chords & Tabs for Guitar, Bass & Ukulele

  •               SOLm
    En Argentina nací
                          DOm
    tierra del Diego y Lionel
                       RE7
    de los pibes de Malvinas
                   SOLm
    que jamás olvidaré
    
                       DOm
    No te lo puedo explicar
                         SIb
    porque no vas a entender
                       RE7
    las finales que perdimos
                      SOLm
    cuantos años la lloré
    
                     DOm
    Pero eso se terminó
    
  • Intro: Gm  D7  Gm / Gm  D7  Gm
    
    
    e----------------------------------------------------------------
    B--------------------------------1------------------------4-3----
    G-3-2-3--2-3-2-3---3-2-3--2-3-2 ---5-3-5--3-5-3-5--5-3-5------5-3
    D----------------------------------------------------------------
    A----------------------------------------------------------------
    E----------------------------------------------------------------
    
    e------------------------------------------------------------------2-3-
    B---------------------------------1--------------------------3-1/3-----
    G---3-2-3--2-3-2-3---3-2-3--2-3-2 ----5-3-2--2-2---------0-2-----------
    D-----------------------------------------------5-4----4---------------
    A----------------------------------------------------------------------
    E----------------------------------------------------------------------
    
    
    Gm
    En Argentina nací
    
  • +
    ¡Colabora con nosotros!
    Envíanos tu versión de esta canción

Muchachos, hoy nos volvimos a ilusionar Lyrics
En Argentina nací
tierra del Diego y Lionel
de los pibes de Malvinas
que jamás olvidaré
No te lo puedo explicar
porque no vas a entender
las finales que perdimos
cuantos años la lloré
Pero eso se terminó
porque en el Maracaná
la final con los brazucas
la volvió a ganar papá
(estribillo)
Muchachos
ahora nos volvimos a ilusionar
quiero ganar la tercera
quiero ser campeón mundial
Y al Diego
desde el cielo lo podemos ver
con Don Diego y La Tota
alentándolo a Lionel.
(estribillo)
Y ser campeones otra vez, . .
Y ser campeones otra veeeez. resalta nota Sol, de cuerda 1 en acorde Gm)
(ultimos dos acorde en guitarra)
Es mi primera Transcripción. Espero la disfruten.




[Muchachos, hoy nos volvimos a ilusionar acordes][Muchachos, hoy nos volvimos a ilusionar cifra]
© LaCuerda.net · legal notice · privacy · es · en · pt · contact us
DINAMICO