Guitar Chords » L »Luis Miguel » La media vuelta (Tab)

La media vuelta
Luis Miguel

Lyrics, Chords & Tabs for Guitar, Bass & Ukulele

  • Intro  D G E7 Am D G (2x) Am D
        G              B7
    Te vas porque yo quiero
            Em    Dm G
    que te vayas
          C           E7
    a la hora que yo quiera
          Am
    te detengo.
        D           C
    Yo se que mi cariño
             G  E7
    te hace falta
                    Am
    porque quieras o no
    D            G  Am D
    yo soy tu dueño.
    
        G              B7
    Yo quiero que te vayas
    
  •     D              F#7
    Te vas porque yo quiero
            Bm    D7
    que te vayas
          G           B7
    a la hora que yo quiera
          Em
    te detengo.
        A7
    Yo se que mi cariño
             D
    te hace falta
     B7              Em
    porque quieras o no
     A7        D
    yo soy tu dueño.
          D           F#7
    Yo quiero que te vayas 
            Bm    D7
    por el mundo
    
  • E|--------------------------------------------------------------|
    B|--1 /7-7-7--7-7-7-7-5-3-5/7-7------1 /12-12-12--12-12-12-12---|
    G|--2 /7-7-7--7-7-7-7-6-4-6/7-7------2 /12-12-12--12-12-12-12---|
    D|--------------------------------------------------------------|
    A|--------------------------------------------------------------|
    e|--------------------------------------------------------------|
    
    E|------------------9--9---9--9--9--9--11̑9-9--7-5--------------|
    B|-10-8/12-12----10-10-10--10-10-10-10------10-8-7--10-10-10-12-|
    G|-11-9/12-12----11---------------------------------11-11-11-12-|
    D|--------------------------------------------------------------|
    A|--------------------------------------------------------------|
    e|--------------------------------------------------------------|
    
    E|--------------------------------------------------------------|
    B|-10-10-8--8-8-8-12-10-8-7-------------------------------------|
    G|-11-11-9--9-9-9-12-11-9-7-------------------------------------|
    D|-------9----------------7-------------------------------------|
    A|--------------------------------------------------------------|
    e|--------------------------------------------------------------|
    
  • e|------0-0---0-0-1--0-1-0-------------0-----0------------------|
    A|--1---1-1---1-1-3--1-3-1---3-1--1-1--1--3--1--3---1-----------|
    D|--2------------------------3-2--2-2-----3-----3---2--3-3-3----|
    G|-----------------------------------------------------5-5-5----|
    B|--------------------------------------------------------------|
    E|--------------------------------------------------------------|
    
    e|--------------------------------------------------------------|
    A|-3--1--3-------------------1----------------------------------|
    D|-3--2--3---3--2---------0-------3--2--0-----------3--2--------|
    G|-----------5--3------2------------------------3---------------|
    B|------------------3-------------------------------------------|
    E|--------------------------------------------------------------|
    
     D           F#7                Bm    D7
    Te vas porque yo quiero que te vayas
        G        B7            Em
    a la hora que yo quiera te detengo
      A7                        D
    yo sé que mi cariño te hace falta
    
  • +
    ¡Colabora con nosotros!
    Envíanos tu versión de esta canción

La media vuelta Lyrics
Te vas porque yo quiero
que te vayas
a la hora que yo quiera
te detengo.
Yo se que mi cariño
te hace falta
porque quieras o no
yo soy tu dueño.
Yo quiero que te vayas
por el mundo
y quiero que conozcas
mucha gente.
Yo quiero que te besen
otros labios
para que me compares
hoy como siempre.
Si encuentras un amor
que te comprenda
y sientas que te quiere
mas que a nadie.
Entonces yo dare
la media vuelta
y me ire con el sol
cuando muera la tarde.
Entonces yo dare
la media vuelta
y me ire con el sol
cuando muera la tarde.




[La media vuelta acordes][La media vuelta cifra]
© LaCuerda.net · legal notice · privacy · es · en · pt · contact us
DINAMICO