Guitar Chords » L »Luis Miguel » La Bikina (Tab)

La Bikina
Luis Miguel

Lyrics, Chords & Tabs for Guitar, Bass & Ukulele

  •  intro: G Bb G C B7 Em Cm G Em Am D7 G
    
               G                 B7
          Solitaria, camina la Bikina,
             Em                    Dm7  G7     
          la gente se pone a murmurar.
           C         B7       Em
          Dicen que tiene una pena, 
           A7
          dicen que tiene una pena 
                          D7
          que le hace llorar. 
    
    
               G                    B7
          Altanera, preciosa y orgullosa 
                Em                   Dm7  G7
          no permite la quieran consolar 
           C      B7        Em        Cm
          pasa luciendo su real majestad, 
    
  • C-A#-C-F-E7-Am-F7-C-Am-Dm-G7-C
    
       C                   Bm7   E7
    Solitaria, camina la Bikina,
        Am                Gm7  C7
    la gente se pone a murmurar,
      F         E7       Am
    Dicen que tiene una pena,
     D7                 Dm7
    dicen que tiene una pena
                   G7
    que le hace llorar.
    
    
       C           Bm7     E7
    Altanera, preciosa y orgullosa
        Am                 Gm7  C7
    no permite la quieran consolar
     F      E7        Am      F7
    pasa luciendo su real majestad,
    
  • C Bb C F E7 Am Bb  C Am7 Dm7 G7 C
    
        C                 Bm7b5   E7
    Solitaria, camina la bikina
         Am        Am7        Gm7  C7
    y la gente se pone a murmurar
    F           E7      Am
    dicen que tiene una pena,
    Am7        D7       Am7          D7      Dm7  G7
    dicen que tiene una pena, que la hace llorar
    
         C                     Bm7b5  E7
    Altanera, preciosa y orgullosa
           Am        Am7        Gm7  C7
    no permite la quieran consolar
    F        E7      Am         Bb
    pasa luciendo su real majestad
    C      Am7          Dm7      G7       C
    pasa, camina y nos mira sin vernos jamas
    
    
  • esta es una version instrumental espero que les guste
    
    e-----3-2-5-3-2-0---2-0-------2-0---2-0---2---------------------------
    b---3-------------3---------2-----3-----3---3-1-----------0-0-0-2-0-2-
    g-2-----------------------3-----------------------0---0-2-------------
    d-----0-----0-------4---4-----------------------2---4-----------------
    a-------------------------------2-----2-------0-----------------------
    e-------------------------2-------------------------------3-----2-----
    
    e-------------2-0---2-0---2-0---2-0---0----------5-3-2-5-3-2-0---2-0-3
    b-3---------------3-----3-----3-----3--------------------------3------
    g----------------------------------------------2----------------------
    d-----0-4-0----------------------------------------0-----0------------
    a-2-4-------2-------------------------------0--------------------4----
    e-------------0-----------0-----------0-2-3---------------------------
    
    e-----2-0---2-0---2-----------------------------0-2-3----2-0---2-0----
    b---2-----3-----3---
  • E S T R O F A S :
    
    Solitaria camina la bikina...
    
    e[---10-8-7--10-8-7---------7----8-
    B[---------------------10-8---10----
    G[-7---------------------------------
    
    La gente se pone a murmurar...
    
    e[-7------7--------------
    B[---10-8---10-8--10-8---
    G[---------------------10-
    
    Dicen que tiene una pena...
    
    e[-----------------
    B[-------7--7-8----
    G[-9-9-9--9--------
    
    Dicen que tiene una pena que la hace llorar
    
    e[-7-----7-----7------7----------
    B[--10-8--10-8---10-8---10-8-10-
    G[----------------------------------
    
    Altanera preciosa y orgullosa...
    
    e[---10-8-7--10-8-7---------7----8-
    B[---------------------10-8---10----
    G[-7---------------------------------
    
    No permite la quieran consolar...
    
    e[-7------7--------------
    B[---10-8---10-8--10-8---
    G[---------------------10-
    
    Pasa luciendo su real majestad...
    
    e[------------------7-8-
    B[-------7---7-8-10-----
    G[-9-9-9---9------------
    
    Pasa camina y nos mira sin vernos jamas...
    
    e[-7------7----------------------------
    B[---10-8---10-8--10-8-7--10-8
  • Esta es mi versión de esta canción, está transportada
    a Mi (E) y sacada en las 3 primeras cuerdas (e, B, G)
    espero que sea de su agrado. 
    
    
    E S T R O F A S :
    
    Solitaria camina la bikina... / Altanera preciosa y orgullosa...
    
    e[---12-10-9--12-10-9--------9----10-
    B[---------------------12-10---12----
    G[-9---------------------------------
    
    La gente se pone a murmurar... / No permite que la quieran consolar...
                                     La gente se pone a murmurar...
    e[-9------9------9------
    B[--12-10--12-10--10----
    G[-------------------12-
    
    Dicen que tiene una pena... / Pasa luciendo su real majestad...
                                  Dicen que alguien ya vino y se fué...
    e[---------------------     e[---------------------9-10-      
    B[---------9---9-10-10-     B[---------9---9-10-12------   
    G[-11-11-11--11--------     G[-11-11-11--11-------------
    
    Dicen que tiene una pena que la hace llorar... / Pasa camina y los mira sin ver hacia atrás...
              
  • Para empezar te daré una pequeña introducción 
    a la simbología: 
    Debido a que la sección armonica, en todos los 
    Teclados viene marcada en Inglés, usaremos 
    dicho idioma para identificar el nombre de 
    los acordes y en Español para la sección 
    melódica. Utilizaremos números a lado de 
    las notas los cuales nos indican la octava 
    a la que pertenece la nota, ejemplo: 
    'do5' es menor que 'do6'. En el teclado 
    el primer do es 'do2' después 'do3', 'do4',
    'do5' y así sucesivamente. 
    Vals                                             Vel.3
    
              C                           Am   D7      Em
    re4 sol4 do5 si4 si4 do5 si4 la4 sol4 si4 laa4 si4 la4 
    
                               Dm7 G7  C           B7 
    sol4 si4 la4 sol4 si4 sol4 faa4   mi4 mi4 mi4 fa#4 mi4 
    
          Em         A7           
    fa#4 sol4 sool4 si4 la4 sol4 si4 la4 sol4 si4 la4 sol4 
    
                  D7           G                        
    si4 la4 sol4 laa4 re4 re5 do5 si4 re5 do5 si4 la4 sol4 
    
    Am       
  • G                      B7
    Solitaria camina la bikina
    sol sol* fa* mi* sol*fa*mi* re*do*mi* re*
    
    Em                     Dm  G7
    la gente se pone a murmurar
    mi*re*do*,mi*re*do*, mi*do*sib
    
    
    C           B7        Em
    dicen que tiene una pena
    la sol# la si la si do*, do*
    
    A7
    dicen que tiene una pena
    mi*re*do*mi*re*do**mi*re*
    
    
                   D7
    que la hace llorar
    do*mi*re*do* re*
    
    G                         B7
    Altanera preciosa y orgullosa
    sol sol* fa* mi* sol*fa*mi* re*do*mi* re*
    
    Em                           Dm   G7
    no permite que la quieran consolar
    mi*re*do*,mi*re*do*, mi*do*sib, do*
    
    C        B7       Em       Cm
    pasa luciendo su real majestad
    la sol# la si la si do*, re*mi* fa*
    
    G                  D7
    pasa camina y los mira
    mi*re*do*mi*re*do**re*do*
    
                  G
    sin verlos jamás
    si re*do* si do*
    
    Cm  F    Dm    Gm
    La- Bi--—ki----na
    do*, re*, re* mib*
    
    Cm     F       Bb
    tiene pena y dolor
    mib* mib* fa* mib*fa* sol*
    
    
    Cm  F    Dm    Gm
    La- Bi--—ki----na
    do*, re*, re* mib*
    
    A7       
  • +
    ¡Colabora con nosotros!
    Envíanos tu versión de esta canción

La Bikina Lyrics
Solitaria, camina la Bikina,
la gente se pone a murmurar.
Dicen que tiene una pena,
dicen que tiene una pena
que le hace llorar.
Altanera, preciosa y orgullosa
no permite la quieran consolar
pasa luciendo su real majestad,
pasa y camina y los mira sin verlos jamás.
La Bi-ki-na
tiene pena y dolor
La Bi-ki-na
no conoce el amor.
Altanera, preciosa y orgullosa
no permite la quieran consolar
Dicen que alguien ya vino y se fue,
dicen que pasa las noches llorando por él.
'INTERLUDIO'
La Bi-ki-na
tiene pena y dolor
La Bi-ki-na
no conoce el amor
Altanera, preciosa y orgullosa
no permite la quieran consolar
Dicen que alguien la miró y se fue,
dicen que pasa las noches llorando por él.
dicen que pasa las noches llorando por él.
dicen que pasa las noches llorando por él.

esta es mi version, lo mas complicado es el ritmo,
es como son jalisiense.
Pero se lo pueden inventar.




[La Bikina acordes][La Bikina cifra]
© LaCuerda.net · legal notice · privacy · es · en · pt · contact us
DINAMICO