Guitar Chords » L »la Ley » Mentira (Tab)

Mentira
la Ley

Lyrics, Chords & Tabs for Guitar, Bass & Ukulele

  • Am - C - G         Amm C - G
    
    Am
    Mentira mi vida
       C           G
    lo que se da y no se mira
    Am
    Mentira mi vida
        C             G
    con miel que evaporo mi piel
    
    Am
    Mentira prohibida
       C           G
    Debilidad que me domina
    Am
    Mentira vivida
       C              G
    No quiero mas mentiiiiiiirte
    G
    
  • Am - C - G         Amm C - G
    
    Am
    Mentira mi vida
       C           G 
    lo que se da y no se mira
    Am          
    Mentira mi vida
        C             G
    con miel que evaporo mi piel
    
    Am
    Mentira prohibida
       C           G
    Debilidad que me domina
    Am
    Mentira vivida
       C              G 
    No quiero mas mentiiiiiiirte
    G
    
  • E|------------------------------------------------------------|
    B|------------------------------------------------------------|
    G|-------5-5--7-9-7-7-7p5-4-4---------------------------------|
    D|---7-9-----------------------7--------7-9-5-5---------------|
    A|-7-----------------------------5p7--7---------7-5---7-5-(3)-|
    E|--------------------------------------------------8---------|
    
    
    Am - C - G         Amm C - G
    
    Am
    Mentira mi vida
       C           G
    lo que se da y no se mira
    Am
    Mentira fundida
        C             G
    con miel que evaporo mi piel
    
    Am
    
  • e----------------------------------------
    b----------------------------------------
    g------------5---7/9-7--5-4-4------------
    d-------5-6---------------------7---0/2--
    a---6/7----------------------------------
    e----------------------------------------
    
    e----------------------------------------
    b----------------------------------------
    g------5-7-5-----------------------------
    d-5/7-----------5/7----3-5-3-0-----------
    a----------------------------------------
    e----------------------------------------
    
    Am
    mentira mi vida,
    C              G
    lo que se da no se mira
    Am
    mentira fundida,
    
  • el ritmo  A  LA guitarra  de  beto  ok?
    
    
    
    aqui va 
    
    intro:
    
    guitarra 1:
    
    E-1--3-------------------------------------------------
    B-1--3-------------------------------------------------
    G-3--5-------------------------------------------------
    D-3--5--5--------------5-5--------5-------4------------
    A-5--7-----3~-----5-4------2--3-----2--3---------6-7~~-
    E-1--3---------4------------------------------7--------
    
    E-------4------------4--------------4------------------
    B-------------2------------4----0---------3----6~~~----
    G------------------------------------------------------
    
  •     Am         C            G
    G|------------|------------|------------|
    D|------------|------------|------------|
    A|--00----00--|3-------3-2-|--------5---|
    E|-----0h3---3|------------|3----3------|
    
     Amor...
      E1 ( G )     E2 ( A )     E3 ( B )
    G|------------|------------|---------9s4|
    D|------------|------------|-----9-11---|
    A|------------|5--5--5--5--|-7-11-------|
    E|3--3--3--3--|------------|------------|
    
     Coro ( Mi corazon... )
      E4(C) E3(B)  E2(A) E3(B)  E4(C) E3(B)  E
    G|------------|------------|------------|------------|
    D|------------|------------|------------|-------2----|
    A|10----9--9--|7--7---9--9-|10-10--9--9-|------------|
    E|------------|------------|------------|0-----------|
    
     Ultimas dos vueltas del coro...
      E4 ( c )     E3 ( B )     E2 ( A )     E3 ( B )
    G|------------|------------|------------|------------|
    D|------10----|------9-----|-----7------|------9-----|
    A|---10----10-|---9--------|---7---7----|---9--------|
    E|8-----------|7---------
  • +
    ¡Colabora con nosotros!
    Envíanos tu versión de esta canción

Mentira Lyrics
Mentira mi vida
lo que se da y no se mira
Mentira mi vida
con miel que evaporo mi piel
Mentira prohibida
Debilidad que me domina
Mentira vivida
No quiero mas mentiiiiiiirte
Amor
Solamente encontre
El necio precio de volverte
Mentira vendida
Moralidad que me intoxica
Mentiras fundidas
Flagelo que mi corazon no olvida mentira.
Las tentaciones destructivas
Mentira medida
No quiero mas mentirte
Amor
Solamente me perdi
Regreso para devolverte
Mi corazon late por mi dentro de mi
Mi corazon nunca dejo tu corazon
Mentira servida
El vino y pan de cada dia
Mentira atrevida
Cordero de mi corazon
Amarga es la vida
Sabor a culpa y agonia
Mentira divina
No quiero mas mentirte
Amor
Solamente encontre
El necio precio de volverme a ver
Amor
Solamente encontre
El necio precio de volverme a ver
Mi corazon late por mi dentro de mi
Mi corazon nunca dejo tu corazon....
CUALQUIER DUDA ME PUEDES ESCRIBIR A bogaxx@hotmail.com




[Mentira acordes][Mentira cifra]
© LaCuerda.net · legal notice · privacy · es · en · pt · contact us
DINAMICO