Guitar Chords » L »la Ley » Aquí (Tab)

Aquí
la Ley

Lyrics, Chords & Tabs for Guitar, Bass & Ukulele

  • D-G
    
    D
    EL HOMBRE ESTA ACERCANDOSE HACIA 
                             G
    EL ENCUENTRO CON LA FRONTERA
    D
    EN CAMBIO UNA DECISION
                                    G
    LA PUERTA ABIERTA DE UNA NUEVA ERA
    
    
    (precoro)
    
    Em
    EL MUNDO QUE GIRA AL REVES 
    PRETENDE QUE NAVEGE EN EL 
    A
    AHOGANDO MIS IDEAS
    
    
  • D G D G
    
    D
    El hombre esta acercandose
                                  G
    Hacia el encuentro con la frontera.
           D
    Un cambio una decision 
                              G
    La puerta abierta de una nueva era.
    
         Em7
    Un mundo que gira al reves 
    Pretende que navegue en el 
        A           Asus2
    Ahogando mis ideas
    
        D
    El ruido ambiente y soledad 
                               G
    
  •    D               G           D               G
    e|-2~~~~~~~~~~~~~~-------------2~~~~~~~~~~~~~~-----------------------------|
    B|-3~~~~~~~~~~~~~~/8~~~~~~~~---3~~~~~~~~~~~~~~/8~~~~~~~~~~~~~~-------------|
    G|-2~~~~~~~~~~~~~~/7~~~~~~~~---2~~~~~~~~~~~~~~/7~~~~~~~~~~~~~~-------------|
    D|-0---------------------------0-------------------------------------------|
    A|-------------------------------------------------------------------------|
    E|-------------------------------------------------------------------------|
    
    VERSO 1:
    D                                                         G (FIG 1)
    El hombre esta acercándose hacia el encuentro con la frontera
    D                                                     G (FIG 1)
    Un cambio una decisión la puerta abierta de una nueva era
    
    FIG 1:
    e|-------------------------------------------------|
    B|-------------------------------------------------|
    G|-x-5^7-7--x-5^7-7--x-5^7--x-5^7-7--x-5^7-7-6-5/--|
    D|-------------------------------------------------|
    A|-------------------------------------------------|
    
  • |-------------------------|--------------------------|
    |-3--3--3--3--3--3--3--3--|-3--3--3--3--3--3--3--3---|
    |-2--2--2--2--2--2--2--2--|-0--0--0--0--0--0--0--0---|
    |-0--0--0--0--0--0--0--0--|-0--0--0--0--0--0--0--0---|
    |-------------------------|-x--x--x--x--x--x--x--x---|
    |-------------------------|-3--3--3--3--3--3--3--3---|
    |                                                    |
    |-10-10-10-10-10-10-10-10-|-10-10-10-10-10-10-10-10--|
    |-10-10-10-10-10-10-10-10-|-10-10-10-10-10-10-10-10--|
    |-7--7--7--7--7--7--7--7--|-7--7--7--7--7--7--7--7---|
    |-------------------------|--------------------------|
    |-------------------------|--------------------------|
    |-------------------------|--------------------------|
    
    Verse:
    Play this palm-muting everything
    |--------------------|---------------------------------|
    |-3--3-3-3--3--3-3-3-|-3---3---3---3---3---3---3---3---|
    |-2--2-2-2--2--2-2-2-|-0---0---0---0---0---0---0---0---|
    |-0--0-0-0--0--0-0-0-|-0---0---0---0---0---0---0---0---|
    
  • |-2--3--3--3--3--3--3--3--|--------------------------|
    |-3--3--3--3--3--3--3--3--|-3--3--3--3--3--3--3--3---|
    |-2--2--2--2--2--2--2--2--|-0--0--0--0--0--0--0--0---|
    |-0--0--0--0--0--0--0--0--|-0--0--0--0--0--0--0--0---|
    |-------------------------|--------------------------|
    |-------------------------|-3--3--3--3--3--3--3--3---|
                                                        
    |-10-10-10-10-10-10-10-10-|-10-10-10-10-10-10-10-10--|
    |-10-10-10-10-10-10-10-10-|-10-10-10-10-10-10-10-10--|
    |-7--7--7--7--7--7--7--7--|-7--7--7--7--7--7--7--7---|
    |-------------------------|--------------------------|
    |-------------------------|--------------------------|
    |-------------------------|--------------------------|
    
    Verso:
    
           D                           G
    |--------------------|---------------------------------
    |-3--3-3-3--3--3-3-3-|-3---3---3---3---3---3---3---3---
    |-2--2-2-2--2--2-2-2-|-0---0---0---0---0---0---0---0---
    
  • Esta canción es muy fácil, porque
    va tocada con los acordes de la guitarra
    y porque los grooves no son nada del
    otro mundo.
    
    Bueno la canción va así:
    
    RIFF 1 (Intro):
    
    G |---------------------------------------------------|
    D |-(0)-(0)-(0)-(0)-(0)-(0)-(0)-(0)-------------------|
    A |--5---5---5---5---5---5---5---5--------------------|
    E |---------------------------------3-3-3-3-3-3-3-3---|
    
    Las notas en parentesis, significan que puedes dar la
    nota en ese traste también. El intro se repite 2 veces
    y luego entra el siguiente riff que es el del Verso:
    
    RIFF 2 (Verso):
    
    G |---------------------------------------------------|
    D |---------------------------------------------------|
    A |-5-5--55-5--5-5--55-5------------------------------|
    E |-----------------------3-3--33-3/10--3-3--3-3--33--|
    
    ESTO SE REPITE 2 VECES, Y LUEGO VA EL PRE-CORO.
    
    RIFF 3 (Pre-Coro):
    
    G |---------------------------------------------------|
    D |-(2)-(2)-(2)-(2)-(2)-(2)-(2)-(2)-------
  • Intro
                                        |_______3x_______|
    C |----------------|X---------------|----------------|
    H |----------------|--x-x-x-x-x-x-x-|x-x-x-x-x-x-x-x-|
    S |------------o-oo|----o-------o---|----o-------o---|
    B |----------------|o-------o-o-----|o-------o-o-----|
       1 + 2 + 3 + 4 +  1 + 2 + 3 + 4 +  1 + 2 + 3 + 4 +  
    
    1er Verso
                       |_______6x_______|
    C |X---------------|----------------|----------------|X---------------|
    H |--x-x-x-x-x-x-x-|x-x-x-x-x-x-x-x-|x-x-x-x-x-x-----|--x-x-x-x-x-x-x-|
    T1|----------------|----------------|--------------o-|----------------|
    S |----o-------o---|----o-------o---|----o-------oo--|----o-------o---|
    B |o-------o-o-----|o-------o-o-----|o-------o-o-----|o-------o-o-----|
       1 + 2 + 3 + 4 +  1 + 2 + 3 + 4 +  1 + 2 + 3 + 4 +  1 + 2 + 3 + 4 + 
    
      |_______6x_______|                                 |_______2x_______|
    C |----------------|----------------|X---------------|----------------|
    H |x-x-x-x-x-x-x-x-|
  • +
    ¡Colabora con nosotros!
    Envíanos tu versión de esta canción

Aquí Lyrics
EL HOMBRE ESTA ACERCANDOSE HACIA
EL ENCUENTRO CON LA FRONTERA
EN CAMBIO UNA DECISION
LA PUERTA ABIERTA DE UNA NUEVA ERA
(precoro)
EL MUNDO QUE GIRA AL REVES
PRETENDE QUE NAVEGE EN EL
AHOGANDO MIS IDEAS
EL RUIDO AMBIENTE Y SOLEDAD
DE LA CIUDAD NOS AISLAN DE TODO
POR ESO COMENZE A ESCARBAR PARA
ENCONTRAR LOS MIL Y UN TESORO
EL MUNDO QUE GIRA AL REVES
PRETENDE SUMERGIRME EN EL
AHOGANDO MIS IDEAS
AQUI QUE TENGO EL PRESENTIMIENTO
QUE AQUI NADA VOY ARRASTRAR DESDE AQUI
SHARANUNANA SHARANUNANA
( MISMOS TONOS)
LAMENTO EN MI CORAZON
PUES IMAGINACION ES VERDADERO
MIENTRAS EL TIEMPO ANUNCIA QUE
POR UN SEGUNDO CASI FUI UN .........
Y EL MUNDO QUE GIRA AL REVES
PRETENDE QUE ME INCIENDA EN EL
QUEMANDO MIS IDEAS
CUANDO HASTA UN CIEGO PUEDE VER
QUE NOS CALLAMOS SIN SABER
PERDIENDONOS LA VUELTA
PRE CORO




[Aquí acordes][Aquí cifra]
© LaCuerda.net · legal notice · privacy · es · en · pt · contact us
DINAMICO