Guitar Chords » L »León Gieco » solo le pido a dios (Tab)

solo le pido a dios
León Gieco

Lyrics, Chords & Tabs for Guitar, Bass & Ukulele

  •    Gadd2  Am7/G  C/G  Dsus2  Bm #5+b9  (arreglo)
    
    e|   3     3      0     0       x    ----------0-
    B|   0     1      1     3       1    ----------0-
    G|   0     0      0     2       0    ----------0-
    D|   0     2      2     0       0    -----0h2--2-
    A|   0     0      3     x       2    -0h2------2-
    E|   3     3      3     x       x    ----------0-
    
    
    Gadd2   Am7/G  Gadd2
    Solo le pido a Dios
    C/G                Bm #5+b9   Am (Am7) Am
    Que el dolor no me sea indiferente
    Bm            Gadd2            Dsus2  D
    Que la reseca muerte no me encuentre
            C/G            Bm #5+b9      Em (arreglo x 2) + VI (0-2-3)
    Vacío y solo sin haber hecho lo suficiente
    
    Solo le pido a Dios
    
  • e|------------------------------------||
    B|------------------------------------||
    G|------------------------------------||
    D|------0-2-----------0-2-------------||
    A|--0-2-----------0-2-----------------||
    E|----------0-0-0---------0-0-0--0-2--|| riff
    
    
    G        D        G
    Solo le pido a Dios,
    C                  Bm           Am
    Que el dolor no me sea indiferente,
    Bm           G                D
    Que la reseca muerte no me encuentre,
            C              Bm          Em
    Vacio y solo sin haber hecho lo suficiente.
    
    riff
    
    Solo le pido a Dios
    
  • G       C/G      G
    Sólo le pido a Dios
    C                  G/B       Am
    que el dolor no me sea indiferente
    Bm              G              D/F#
    que la reseca muerte no me encuentre
            C/G            Bm             Em    VI(0-2-3)
    vacío y solo sin haber hecho lo suficiente.
    
    
    Sólo le pido a Dios
    que lo injusto no me sea indiferente
    que no me abofeteen la otra mejilla
    después de que una garra me arañó esta suerte.
    
    
    Sólo le pido a Dios
    que la guerra no me sea indiferente
    //:es un monstruo grande y pisa fuerte
    toda la pobre inocencia de la gente//:bis
    
  • Cadd9
    ----3----
    ----3----
    ---------
    --2------
    ----3----
    ---------
    
    G       Cadd9        G
    Solo le pido a Dios,
    C                  Bm           Am
    Que el dolor no me sea indiferente,
    Bm           G                D
    Que la reseca muerte no me encuentre,
            C              Bm          Em
    Vacio y solo sin haber hecho lo suficiente.
    
    riff
    
    Solo le pido a Dios
    
  • --1-0-1-3-5-3-1-0----|
    ------------------2--|
    ---------------------|
    ---------------------|
    ---------------------|
    ---------------------|
    
    1|--0-0-0-3-0-3-0-3-5-3--------|
    2|----------------------3-2-3--|
    3|-----------------------------|
    4|-----------------------------|
    5|-----------------------------|
    6|-----------------------------|
    
    1|------0-1-1-1-1-1-0-0-0-0---0----|
    2|--3-3---------------------3------|
    3|------------------------------2--|
    4|---------------------------------|
    5|---------------------------------|
    6|---------------------------------|
    
  •                Em              Em            D            Em   G
    e-|------------0---------------0-------------2------------0--------
    B-|------------0---------------0-------------3------------0--------
    G-|------------0---------------0-------------2------------0--------
    D-|-----0h2-2--2------0h2-2s5--2------0h2-0--0------0h2-2-2--------
    A-|-0h2--------2--0h2----------2--0h2-----------0h2-------2--------
    E-|------------0---------------0--------------------------0--0-2-3-
    
    
    
    (Con cejilla en el 2º traste)
    
    e |------------2-------------------2-------------4-------------2---------|
    B |------------2-------------------2-------------5-------------2---------|
    G |------------2-------------------2-------------4-------------2---------|
    D |-----2h4-4--4-----2h4-4s7-4-2---4------2h4-2--2------2h4-4--4-4-6-7-7-|
    A |-2h4--------4--2h4--------------4--2h4-----------2h4--------4-5-7-9-9-|
    E |------------2-------------------2---------------------------2---------|
    
    
    
  •    F#m
    e|-2-----------x------------2-----2--------------------------------------|>
    B|-2---------2-x------------2---2-2-------------------0-2-5/7-5--2h0-----|>
    G|-2---------2-x----------------2-2-x--------------------------------2h1-|>
    D|-4--4-x--4-4-x-x-----2--4---4-4-4-x-----2-4/7--2-4---------------------|>
    A|-4--4-x--4-4-x-x-2-4--------4-4-4-x-2-4--------------------------------|>
    E|-2--2-x--2-2----------------2-2---x------------------------------------|>
    
    e|----------------------------------------------------------x------------|>
    B|----------------------------------------------2---------2-x------------|>
    G|-0-2-4-6-6------------------------------------2---------2-x------------|>
    D|-2-4-6-7-7--4-6-7-7-------------------------4-4--4-x--4-4-x-x-----2--4-|>
    A|-0----------5-7-9-9--0-2-4-4-2p4h2h0----2/4---4--4-x--4-4-x-x-2-4------|>
    E|---------------------2-4-5-5---------2--------2--2-x--2-2--------------|>
    
    e|-2------------5h4h2---2-7-7--9--9-12-12-11-11--9--9--5h4h2-------------|>
    B|-2--------2---------2---9-9-10-10-14-14-12-12-10-10--------2-----------|>
    G|-2--------2--------------------------------------------------6h4-------|>
    D|-4--4-x-4-4-4----------------------------------------------------7-6-4-|>
    A|-4--4-x-4-4------------------------------------------------------------|>
    
  • Las siguientes notas corresponden al punteo:
    
    5 5 5 (4)(4) 4
    (6)(6)(6)(6)(6) 6 6 6 6 6 (5)
    5 5 5 6 5 6 5 6 5 6 (4)
    (4)(4) 5 (5)(5)(5)(5)(5) 5 5 5 5 (4) 5 5
    
    Las siguientes notas corresponden al solo 
    que aparece en la mitad y en el final de la cancion:
    
    6 (5) 5 4
    (6)(6) 6 (6) 6 (5) 5 (4)
    (6)(7) 7 (6) 6 6 5 5 5 5 (5) 5 (4) 4  
    (6)(7) 7 (6) 6 6 5 5 5 5 (5) 5 (4) 4  
    
    Cualquier duda, comentario o correccion, o cualquier fanatico de Leon
    escríbanme a: mati_mt@hotmail.com
  • +
    ¡Colabora con nosotros!
    Envíanos tu versión de esta canción
  • Tutorial
    HD
    Como tocar Solo le pido a dios Leon Gieco
    0:12

solo le pido a dios Lyrics
Que el dolor no me sea indiferente
Que la reseca muerte no me encuentre
Vacío y solo sin haber hecho lo suficiente
Que lo injusto no me sea indiferente
Que no me abofeteen la otra mejilla
Después que una garra me arañe esta suerte
Que la guerra no me sea indiferente
Es un monstruo grande y pisa fuerte
Toda la pobre inocencia de la gente
Es un monstruo grande y pisa fuerte
Toda la pobre inocencia de la gente
(intermedio)
Que el engaño no me sea indiferente
Si un traidor puede más que unos cuantos
Que esos cuantos no lo olviden fácilmente
Que el futuro no me sea indiferente
Desahuciado está el que tiene que marchar
A vivir una cultura diferente
Que la guerra no me sea indiferente
Es un monstruo grande y pisa fuerte
Toda la pobre inocencia de la gente
Es un monstruo grande y pisa fuerte
Toda la pobre inocencia de la gente
(final)




[solo le pido a dios acordes][solo le pido a dios cifra]
© LaCuerda.net · legal notice · privacy · es · en · pt · contact us
DINAMICO