Guitar Chords » L »León Gieco » Pensar en nada (Tab)

Pensar en nada
León Gieco

Lyrics, Chords & Tabs for Guitar, Bass & Ukulele

  • 1ra Guit:    D                    F G D                    F G
                                 riff 1
    2da Guit: e|---------------------------------------------------|
              B|-------3----3---3-----1-3-------3----3---3-----1---|
              G|-------2----2---2-----0-2-------2----2---2-----0-2-|hasta
              D|-0-0-0----0-------0h2-----0-0-0----0-------0h2---0-|estrib
              A|---------------------------------------------------|
              E|---------------------------------------------------|
    
    D                      F G
    Justo ayer me di cuenta
        D                        F G
    que solo es cuestion de plata
        D                          F G
    mientras 10 ventanillas cobran
    D                     F G
    una sola es la que paga
    
    D F G D F G
    
    
  • D                    F-G  D                        G-F
    Justo ayer mi di cuenta    que es solo cuestión de plata
    D                               F-G  D
    Mientras diez ventanillas cobran    una sola  es la que paga G-F
    
    Riff x 1
    
    D                      F-G  D                      G-F
    De cómo piensa la gente    a veces la indeferencia
    D                       F-G D                          G-F
    Es tan grande que parece   seres de alguna otra tierra
    
    Riff x 1
    
    ESTRIBILLO:
     A                                     D
    Y que me dicen de esa casa sola que se ve desde un avión
    A                                E
    Quizá  en la soledad  no haya dolor
      D          A        D          A           D
    
  • INTRO:   D                F G
    
    
    D                         F  G     D                F G
    Justo ayer mi di cuenta  que es solo cuestion de plata
    D                        F G         D         F G
    Mientras diez ventanillas cobran,una sola paga
     D                F G     D         F G
    De cómo piensa la gente, a veces la indeferencia
    D                   F G       D              F G
    Es tan grnade que parece  seres de alguna otra tierra
    
    
    ESTRIBILLO:
     A                                     D
    Y que me dicen de esa sola que se ve desde un avion
    A
    Quiza  en la soledad  no haya dolor
      D          A        D          A           D          F G
    De pensar o dolor de pensar...de pensar....en nada
    
  • Arregle un poquito el riff de la que ya estaba segun lo que escucho yo
    lo otro estaba todo ok
    
    Intro:
    
    Guitarra 1:
    e|--------------------------|----------------------------|--|
    B|-------3---3~--3----1--3--|-------3---3~--3------------|--|
    G|----------------0h2-------|-----------------0h2--5--2--|x4|
    D|-0-0-0---0----------------|-0-0-0---0------------------|--|
    A|--------------------------|----------------------------|--|
    E|--------------------------|----------------------------|--|
    
    
    Estrofa 1: (como intro)
    
    Justo ayer me di cuenta,
    que solo es cuestion de plata,
    mientras diez ventanillas cobran,
    una sola es la que paga.
    
    Puente:
    Guitarra 1:
    e|--------------------------|----------------------------|--|
    B|-------3---3~--3----1--3--|-------3---3~--3------------|--|
    G|----------------0h2-------|-----------------0h2--5--2--|x4|
    D|-0-0-0---0----------------|-0-0-0---0------------------|--|
    A|--------------------------|----------------------------|--|
    E|--------------------------|-----------
  • Leon gieco - Pensar en nada (version con Pappo y los piojos)
    Esta es la posta señores
    
    
    Entrar con la bateria
    
    G----------------------------------
    D--0----0--0----0--0----0--3---5---
    A----------------------------------  X16
    E----------------------------------
    
    que me dicen de esa casa sola..
    G-----------------------------
    D-----------------------------
    A-----------------------------  X2
    E--5>>>>>>>>5>>>>>>>>5>>>>>>>-
    
    quiza la soledad no haya dolor..
    G-----------------------------
    D-----------------------------
    A-----------------------------
    E--6>>>>>>>>6>>>>>>>>6>>>>>>>-
    
    G-----------------------------
    D-----------------------------
    A-----------------------------
    E--5>>>>>>>>5>>>>>>>>5>>>>>>>-
    
    G-----------------------------
    D-----------------------------
    A------------------------
  • 0: Close Hi-Hat
    1: Low-Mid Tom
    2: Low tom
    3: High Floor Tom
    4: Low Floor Tom
    5: Bass Drum 1
    6: Electric snare
    7: Crash Cymbal 2
    8: Open Hi-Hat
    
    |-0-0-0-0-0-0-0-0-0-0-0-0-0-0-0-0-0-0-0-0-0-0-0-0-0-0-0-0-----------------|
    |-------------------------------------------------------------------------|
    |-------------------------------------------------------------------------|
    |---------------------------------------------------------2-3-3-4-4-5---66|
    |---------------------------------------------------------------------5---|
    |-------------------------------------------------------------------------|
    
    |-7-8-8-8-8-8-8-8-8-8-8-8-8-8-8---8-7-8-8-8-8-8-8-8-8-8-8-8-8-8-8-------|
    |-----------------------------------------------------------------------|
    |-----------------------------------------------------------------------|
    |-----------------------------------------------------------------1-2-3-|
    |-----------------------------------------------------------------------|
    |-5-6-5-6-5-6-5-6-5-6-5-6-5-6
  • +
    ¡Colabora con nosotros!
    Envíanos tu versión de esta canción

Pensar en nada Lyrics
Justo ayer mi di cuenta que es solo cuestion de plata
Mientras diez ventanillas cobran,una sola paga
De cómo piensa la gente, a veces la indeferencia
Es tan grnade que parece seres de alguna otra tierra
ESTRIBILLO:
Y que me dicen de esa sola que se ve desde un avion
Quiza en la soledad no haya dolor
De pensar o dolor de pensar...de pensar....en nada
En la oficina del trabajo,llegando a año nuevo
Todos se pelean por ese maldito acenso
Con la cuota de frustacion algunos viven de rosas
La cuidad se pone gran de y cada vez mas peligrosa
(ESTRIBILLO)
Cualquier cosa alguna cancion para guitarra dudas
mandemne un mail a
alan92_rojo@hot... espero que les guste la cancion




[Pensar en nada acordes][Pensar en nada cifra]
© LaCuerda.net · legal notice · privacy · es · en · pt · contact us
DINAMICO