Guitar Chords » J »Julio Jaramillo » Odiame (Tab)

Odiame
Julio Jaramillo

Lyrics, Chords & Tabs for Guitar, Bass & Ukulele

  • Em             B7           Em
    Odiame por piedad, yo te lo pido
    E7                        Am
    Odiame sin medida ni clemencia
                  D7           G
    Odio quiero mas que indiferencia
                 B7                        Em
    Porque el rencor hiere menos que el olvido
    Em             B7           Em
    Odiame por piedad, yo te lo pido
    E7                        Am
    Odiame sin medida ni clemencia
                  D7           G
    Odio quiero mas que indiferencia
                 B7                        Em
    Porque el rencor hiere menos que el olvido
            D7                        G
    Si tu me odias quedare yo convencido
                D7                     G
    De que me amaste, mujer, con insistencia
    
  • E|--------------------------4-4/5-5-----| X2
    B|-----5-8-7-8-7-8-7-8-7-8-8--------8-6-|
    G|---6----------------------------------|
    D|-7------------------------------------|
    
    E|-8--8--7-8--7-8--7-8--7-8--7-8--8/10--10-10-8--6-|
    B|-10-10-9-10-9-10-9-10-9-10-9-10-10/11-11-11-10-8-|
    G|-------------------------------------------------|
    D|-------------------------------------------------|
    
    E|-13-13-13-13-13-13-13--13-13-12-12-12-12-10-10-9-10----------|
    B|-15-15-15-15-15-15-15--15-15-14-14-14-14------------10-------|
    G|-------------------------------------------------------10----|
    D|----------------------------------------------------------12-|
    
    Dm             A7           Dm
    Odiame por piedad, yo te lo pido
    D7                      Gm
    Odiame sin medida ni clemencia
    C7                        F
    
  • este es otro requinto que yo me se
    
    este es el primero
    e|------0-0-5-5-4-4-7-7-5-5-8-8-7-7-10-10-8-8-12-12-10-10-13-13-12-12-12-12-12-12-12-0-0-10-0-0-12-0-0-10-0-0-10-0-0-8-0-0-10-0-0-8-0-0|
    b|0-1-3--------------------------------------------------------------------------------------------------------------------------------|
    
    e|4-4-5-5-7-7-8-7-5----------|
    b|------------------5--------|
    g|--------------------5------|
    d|----------------------7----|
    
    parte de enmedio
    e|-5/7--5/7--5/7--5/7--5/7--5/7--5-5------5-7-5--|
    b|-6----6----6----6----6----6----6-6----6--------|
    g|-7----7----7----7----7----7----7-7--7----------|
    
    e|-5-5-5-----5-7-5-4-4-5-7-5-4-5-7-8-|
    b|-5-5-5---5-------5-----------------|
    g|-5-5-5-5---------4-----------------|
    
    e|-5/7--5/7--5/7--5/7--5/7--5/7--5-5------5-7-5--|
    b|-6----6----6----6----6----6----6-6----6--------|
    g|-7----7----7----7----7----7----7-7--7----------|
    
    e|-5-5-5-----5-7-5-4-4-5-7-5-4-5-------|
    b|-5-5-5---5-------5-------------5--
  • +
    ¡Colabora con nosotros!
    Envíanos tu versión de esta canción

Odiame Lyrics
Odiame por piedad, yo te lo pido
Odiame sin medida ni clemencia
Odio quiero mas que indiferencia
Porque el rencor hiere menos que el olvido
Odiame por piedad, yo te lo pido
Odiame sin medida ni clemencia
Odio quiero mas que indiferencia
Porque el rencor hiere menos que el olvido
Si tu me odias quedare yo convencido
De que me amaste, mujer, con insistencia
Pero ten presente de acuerdo a la experiencia
Que tan solo se odia lo querido
Pero ten presente de acuerdo a la experiencia
Que tan solo se odia lo querido
Que vale mas, yo humilde tu orgullosa
O vale mas tu debil hermosura
Piensa que en el fondo de la fosa
Llevaremos la misma vestidura
Que vale mas, yo humilde tu orgullosa
O vale mas tu debil hermosura
Piensa que en el fondo de la fosa
Llevaremos la misma vestidura
Si tu me odias quedare yo convencido
De que me amaste, mujer, con insistencia
Pero ten presente de acuerdo a la experiencia
Que tan solo se odia lo querido
Pero ten presente de acuerdo a la experiencia
Que tan solo se odia lo querido
Pa aquellas chavas que dicen tenerlo todo
y que an lastimado a tantos hombres y en especial
a aquellas que han dicho que me odian
pa que vean




[Odiame acordes][Odiame cifra]
© LaCuerda.net · legal notice · privacy · es · en · pt · contact us
DINAMICO