Guitar Chords » J »Julio Jaramillo » Nuestro Juramento (Tab)

Nuestro Juramento
Julio Jaramillo

Lyrics, Chords & Tabs for Guitar, Bass & Ukulele

  • F# - Bm - F# - Bm - Em - Bm - F# - Bm
    
    
          Bm                              Em
          No puedo verte triste porque me mata
    
          F#                         Bm
          tu carita de pena, mi dulce amor
    
          D                 A7           F#m
          me duele tanto el llanto que tu derramas
    
          E                 D            C#7   F#m
          que se llena de angustia mi corazon
    
    
          Bm                               Em
          Yo sufro lo indecible si tu entriteces
    
          F#                              B7
    
  •         LAm                        REm
          no puedo verte triste porque me mata
          
          MI7                       LAm      
          tu carita de pena, mi dulce amor
    
          DO                            MIm
          me duele tanto el llanto que tu derramas
    
          RE7               DO            SI7   MI7
          que se llena de angustia mi corazon
    
    
          LAm                         REm
          Yo sufro lo indecible si tu entriteces
    
          MI7                        LA7
          no quiero que la duda te haga llorar
    
          MI7                        LA7
    
  •   Em              Am                   Em
    e|---7-10---13-12p13p12-----------|----------------7-7-7--------|
    B|--9-------------------13--------|----------9-9-9--------------|
    G|-9-----------------------14-14--|----9-9-9--------------------|
    D|--------------------------------|-----------------------------|
    A|--------------------------------|-----------------------------|
    E|--------------------------------|-----------------------------|
                Am                 Dm
    e|-10-13-12p13p12-----------|-13------------15------------|
    B|----------------13--------|----15-15-15------15-15-15---|
    G|--------------------14-14-|-----------------------------|
    D|--------------------------|-----------------------------|
    A|--------------------------|------------(2 VECES)--------|
    E|--------------------------|-----------------------------|
        Am                         Em                            Am
    e|--12-----------13----------|-10-----------10-------------|-8---------10-
    B|-----13-13-13-----13-13-13-|----12-12-12-----12-12-12----|-10-----10----
    G|---------------------------|-----------------------------|-----10-------
    D|---------------------------|-----------------------------|--------------
    A|---------(2 VECES)---------|-------------(2 VECES)-------|--------------
    
  • e|---7-10---13-12------------|----------------7-7-7--------|
    B|--9-------------13--10--10-|----------9-9-9--------------|
    G|-9-------------------------|----9-9-9--------------------|
    D|---------------------------|-----------------------------|
    A|---------------------------|-----------------------------|
    E|---------------------------|-----------------------------|
    
    e|-13-12------------|-13------------15------------|
    B|-------13--10--10-|----15-15-15------15-15-15---|
    G|------------------|-----------------------------|
    D|------------------|-----------------------------|
    A|------------------|------------(2 VECES)--------|
    E|------------------|-----------------------------|
    
    
    e|--12-----------13----------|-10-----------10-------------|-10-
    B|-----13-13-13-----13-13-13-|----12-12-12-----12-12-12----|-8--
    G|---------------------------|-----------------------------|----
    D|---------------------------|-----------------------------|----
    A|---------(2 VECES)---------|-------------(2 VECES)-------|----
    
  • NUESTRO JURAMENTO TAB
    
    ESTE REQUINTO ES MUY SENCILLO, CON UN POCO DE RAPIDEZ PERO FACIL.
    
    CUANDO APARECE POR EJEMPLO:
    
    10X3 = SE TOCAN 3 VECES LA CUERDA EN EL DECIMO TRASTE
    
    8X4  = SE TOCAN 4 VECES LA CUERDA EN EL OCTAVO TRASTE
    
    ESTO LO HAGO PARA NO HACER TAN LARGO EL TAB.
    ESPERO Y LES GUSTE MI VERSION.
    
    todo va seguido pero no lo puedo poner asi.
    
    __ 
      \ 
    _  1|----------8--11--14--13--------------I--------------8X4--11--14--13--------------I
    _) 2|------10-----------------14----------I--------10X4-------------------14----------I
       3|--10-------------------------15--15--I--10X4-----------------------------15--15--I
    _  4|-------------------------------------I-------------------------------------------I
    _) 5|-------------------------------------I-------------------------------------------I
       6|-------------------------------------I-------------------------------------------I
    __/
    
    
    
    __ 
      \ 
    _  1|--14--------16--------14--------16--------I
    _) 2|------16X3
  • Claves:
    
     /  = Deslizar
     p  = Ligadura
     () = Dejen sonar
    
    
    Intro
    
     l-----------------12--15-15p14----------l
     l-----------11-14--------------15-12-12-l
     l-------/11-----------------------------l
     l---------------------------------------l
     l---------------------------------------l
     l---------------------------------------l
    
     l--------------------------------------12--15-15p14------------l
     l--------------11-11-11-11-14-14-14-14--------------15-12-12---l
     l--11-11-11-11-------------------------------------------------l
     l--------------------------------------------------------------l
     l--------------------------------------------------------------l
     l--------------------------------------------------------------l
    
    
     l----15----------17p15-------15----------17p15-------l
     l-------17-17-17-------17-17----17-17-17-------17-17-l
     l----------------------------------------------------l
     l----------------------------------------------------l
     l---------------------------------------------------
  • Bueno pues aki esta la introduccion de esta famosa cancion.
    Hice la trascripcion para bajo, de todos modos ahi tienen
    las notas para adecuarla a cualquier instrumento musical.
    
    Mi sol# si re fa mi si la la
    mi mi mi mi sol# sol# sol# sol# si si si si fa mi si  la la
    Fa#  re re re sol  re re re Fa#  re re re sol  re re re
    Mi do do do fa do do  do Mi do do do fa do do  do
    Re si si si Re si si si Re si si si Re si si si Re si si si
    Mi fa mi re do la do mi la
    
    
    G|-------7-10-9------------------------------------10-9------
    D|------9-------9-7-7----------------------9-9-9-9-----9-7-7-
    A|--7-11----------------7-7-7-7-11-11-11-11------------------
    E|-----------------------------------------------------------
    
    
    -11--------12--------11--------12----------
    ---12-12-12--12-12-12--12-12-12--12-12-12--
    -------------------------------------------
    -------------------------------------------
    
    -9--------10--------9---------10----------
    --10-10-10--10-10-10--10-10-10--10-10-10--
    --------------------------
  • +
    ¡Colabora con nosotros!
    Envíanos tu versión de esta canción
  • Tutorial
    Como tocar NUESTRO JURAMENTO en GUITARRA acordes tab
    5:21

Nuestro Juramento Lyrics
no puedo verte triste porque me mata

tu carita de pena, mi dulce amor
me duele tanto el llanto que tu derramas
que se llena de angustia mi corazon
Yo sufro lo indecible si tu entriteces
no quiero que la duda te haga llorar
hemos jurado amarnos hasta la muerte
y si los muertos aman
despues de muertos amarnos más
Si yo muero primero es tu promesa
sobre de mi cadáver dejar caer

todo el llanto que brote de tu tristeza
y que todos se enteren de tu querer

Si tu mueres primero yo te prometo
escribiré la historia de nuestro amor
con toda el alma llena de sentimiento
la escribiré con sangre
con tinta sangre del corazón




[Nuestro Juramento acordes][Nuestro Juramento cifra]
© LaCuerda.net · legal notice · privacy · es · en · pt · contact us
DINAMICO