Guitar Chords » J »Julio Jaramillo » Migajas (Tab)

Migajas
Julio Jaramillo

Lyrics, Chords & Tabs for Guitar, Bass & Ukulele

  • bueno ps esta es mi primer transcripcion
    
    esta cancion es para los que nunca an sido correspondidos
    y ps esta chida.si hubiera sabido que se pueden subir estas
    cosas ya  hubiera subido un chingo.
    
    solo saque el intro hay le buscan los acordes.
    
    1|-----10-10-10-9-7----------------------12-10-9-7----------7-|
    2|----------------------8---5-7-8---5-7-8-------------------7-|
    3|----------------------------------------------------------7-|
    4|----------------------------------------------------------9-|
    5|----------------------------------------------------------9-|
    6|----------------------------------------------------------7-|
    
    1|-----7-7-9-10-9-7-10-9----6-7-9-10-10-9-7--------------------|
    2|---------------------------------------------- --------------|
    3|-------------------------------------------------------------|
    4|-------------------------------------------------------------|
    5|-------------------------------------------------------------|
    6|-------------------------------------------
  • +
    ¡Colabora con nosotros!
    Envíanos tu versión de esta canción






[Migajas acordes][Migajas cifra]
© LaCuerda.net · legal notice · privacy · es · en · pt · contact us
DINAMICO