Guitar Chords » J »Juan Carlos Alvarado » Le llaman guerrero (Tab)

Le llaman guerrero
Juan Carlos Alvarado

Lyrics, Chords & Tabs for Guitar, Bass & Ukulele

  • e--------------------------------------------
    B----------8------10-8-----------------------
    G---9-9-11---11-9------11-9-7-7-7--9-11-9-7-9
    D--------------------------------------------
    A--------------------------------------------
    E--------------------------------------------x2
    y luego...
    e-------------10------------------------------10-------------
    B-12-12-10-12----12-12-10-12-12-12-10-10-9-10----12--5-7-8-5-
    G------------------------------------------------------------
    D------------------------------------------------------------
    A------------------------------------------------------------
    E------------------------------------------------------------x2
    
    
    Y Luego Ya El Canto:
    
    
    Em                               C
    Cuentan de un Dios que hace maravillas
    
  • e------------------------------------------------------------------
    B--------12--8-10-12--15-10--8v--8s10-10-12-12s13v-----------------
    G--9s2-------------------------------------------------------------
    D------------------------------------------------------------------
    A------------------------------------------------------------------
    E------------------------------------------------------------------
    
    2ª Parte:
    e------------------------------------------------------------------
    B------------8-10-12-13-15v---17-----------------------------------
    G-------------------------------------14---11s12-11-9vs2-----------
    D-----9s1----------------------------------------------------------
    A------------------------------------------------------------------
    E------------------------------------------------------------------
    
    3ª Parte (ya con la voz):
    “le llaman guerrero………………..”
    e------------------------------------------------------------------
    B--5s1---------12-13-12-15s17v-------------------------------------
    G------------------------------------------------------------------
    
  • --Jair--
    
    
    Mano derecha   (Tonos)
    Mano Izquierda (Acordes)
    
    
    Introducción de Piano
    //Em - Cmaj7 - D - Bm - Em//
    
    Nota: Seguir los acordes con improvisación
    
    
    
    Primera Estrofa
    
                   Em              Cmaj7             D           Em
    Cuentan de un Dios que hace maravillas dándole poder a su pueblo
            Em                 Cmaj7            D             Em
    Gracias a él conquistaron reinos, tomaron ciudades en su nombre
    
    
    
    Coro
    
                 Em                 Cmaj7
    //Le llaman guerrero, le llaman guerrero,
                D        Bm             Em
    le llaman guerrero Jehová de los ejércitos//
    
    
    
    
    Introducción de Trompetas a la versión marcha
    
    (Tonos):    B B B G E E E E D E E E E E F# F# F# E F# G F# E
    (Acordes):         Em        Cmaj7      D                 Em
    
    
    (Tonos):    B B B G E E E E D E E E E E F# F# F# E D G F# E D E
    (Acordes):         Em        Cmaj7      D                     Em
    
    
    
    Primera Estrofa
    
                   Em              Cmaj7             D           Em
    C
  • +
    ¡Colabora con nosotros!
    Envíanos tu versión de esta canción

Le llaman guerrero Lyrics
y luego...
Y Luego Ya El Canto:
Cuentan de un Dios que hace maravillas
dandole poder a Su pueblo,
gracias a el conquistaron Reinos,
tomaron ciudades en Su nombre.
Fue cantando, otras veces gritando,
acompañado de sonido de bocina
fue cantando, otras veces gritando,
a viva voz a Su Dios.
//Columna de fuego, nube en el desierto
peña de Horeb para todo el Sediento.//
Le llaman "Guerrero", Le llaman "Guerrero"
Jehova de los Ejercitos.
luego sigue esto CON LAS TROMPETAS Em C D Em D Em C D Em
y despues hace los mismas notas que el coro saludos ala fam pelagio
ojala les sirva es muy buena esa alabanza y es con el mismo acorde
en el que se encuentra transcripta la alabanza el señor les
bendiga




[Le llaman guerrero acordes][Le llaman guerrero cifra]
© LaCuerda.net · legal notice · privacy · es · en · pt · contact us
DINAMICO