Guitar Chords » J »Juan Carlos Alvarado » Cristo no está muerto (Tab)

Cristo no está muerto
Juan Carlos Alvarado

Lyrics, Chords & Tabs for Guitar, Bass & Ukulele

  • G (SOL), pero SI LA quieren tocar a la tonalidad de Do, cambien los
    siguientes tonos:
    
    G por C
    C por F
    F por Bb
    F# por B
    D por G
    C# por F#
    
    
    G7
    Cristo no está muerto (está vivo)
    C7
    Cristo no esta muerto (está vivo)
    G7
    Cristo no está muerto (está vivo)
    G                      F-F#-G
    Lo siento en mis manos   Lo siento en mis pies
    F-F#-G          C7     G7
    
  •  C
    Cristo no está muerto (está vivo)
     F
    Cristo no esta muerto (está vivo)
     C
    Cristo no está muerto (está vivo)
     C                          C
    Lo siento en mis manos, Lo siento en mis pies
         C
    Lo siento en todo mí ser
    
     C             F          C         F
    La tengo, la tengo, la tengo, la tengo
        G           G  F# F                           C
    La unción está so-bre mi no la entiendo pero la tengo
    
    
    C                       F
    Mira lo que hizo Dios, mira lo que hizo Dios
     C           F-F#-C         F-F#-C
    
  •   C7
    //Cristo no está muerto (está vivo)
     F7
    Cristo no esta muerto (está vivo)
     C7
    Cristo no está muerto (está vivo)
     C7                          C7
    Lo siento en mis manos, Lo siento en mis pies
         C7
    Lo siento en todo mí ser//
    
    
     C7                       F7          C7
    La tengo, la tengo, la tengo, la tengo
        G7           G7  F#7 F7                           C7
    La unción está sooobre   mi  no la entiendo pero la tengo
    
    
                    C7
    //Hay Un gozo que no puedo parar//
    
  • La canción es muy sencilla
    Cualquier cosa comunicarse a mi correo
    afccamargo11@gmail.com
    
    Intro
    Está intro la hace el piano junto con el bajo
    
    G-----------------------
    D--------------0-1-2---- Siempre se repite hasta
    A----3-------3---------- que entren las trompetas
    E------5-3-5------------
    
    Cuando entran las trompetas el bajo solo marca la nota
    
    G------------------------------
    D------------------------------
    A----3----1-2-3----1-2-3--3----
    E------------------------------
    
    Cristo no está muerto...
    
    Riff 1
    
    G-----------------------
    D--------------0-1-2----
    A----3-------3----------
    E------5-3-5------------
    
    Riff 2
    
    G--------------0-1-2----
    D----3-------3----------
    A------5-3-5------------
    E-----------------------
    
    El riff 1 se utiliza sobre el tono de C7 y el riff 2 sobre el de F7
    
    Riff 3
    Lo siento en mis manos...
    
    G--------------------------------
    D-------------------------------- el último C le tienes que dar
    A----3----1-2-3----1-2-3----3---- ritmo...
    E-----------------------------
  • es algo muy sencillo paro hay les va el bajiado
    
       cristo no esta muerto,el esta vivo
    E-------3-------------------3--------------
    A--3-0----0-3----------3-0----0-3------------
    D--------------0-1-2---------------0-1-2----
    G-------------------------------------------
    
      cristo no esta muerto, el esta vivo
    
    E-------------------------------------------
    A------3------------------3----------------
    D--3-0---0-3---------3-0----0-3---------
    G------------0-1-2--------------0-1-2-----
    
    
      cristo no esta muerto,el esta vivo
    E-------3-------------------3--------------
    A--3-0----0-3----------3-0----0-3------------
    D--------------0-1-2---------------0-1-2----
    G-------------------------------------------
    
      cristo no esta muerto, el esta vivo
    
    E-------------------------------------------
    A------3------------------3----------------
    D--3-0---0-3---------3-0----0-3---------
    G------------0-1-2--------------0-1-2-----
    
    
    lo siento en mis manos          lo sien to en mis pies
    
    E-----------------------------
  • +
    ¡Colabora con nosotros!
    Envíanos tu versión de esta canción

Cristo no está muerto Lyrics
siguientes tonos:
F por Bb
C# por F#
Cristo no está muerto (está vivo)
Cristo no esta muerto (está vivo)
Cristo no está muerto (está vivo)
Lo siento en mis manos Lo siento en mis pies
Lo siento en todo mi ser
La tengo, la tengo, la tengo, la tengo
La unción está so-bre mi gloria a Dios porque la tengo
======/ ======/ ======/ ======/ ======/
654321 654321 654321 654321 654321
1 |||||| 1 |||||| 1 |||||| 1 |||||| 1 oooooo
2 |||||| 2 |||||| 2 |||||| 2 |||||| 2 |||o||
3 oooooo 3 xooooo 3 |||||| 3 |||||| 3 |oo|||
4 |||o|| 4 |||||| 4 |||||| 4 xooooo 4 ||||||
5 |o|||| 5 ||o|o| 5 xooooo 5 |||||| 5 ||||||
6 |||||| 6 |||||| 6 |||||| 6 ||o|o| 6 ||||||
7 |||||| 7 |||||| 7 ||o|o| 7 |||||| 7 ||||||
======/ ======/
654321 654321
1 |||||| 1 ||||||
2 |||||| 2 oooooo
3 oooooo 3 |||o||
4 |||o|| 4 |oo|||
5 |oo||| 5 ||||||
6 |||||| 6 ||||||
7 |||||| 7 ||||||
Dios les bendiga




[Cristo no está muerto acordes][Cristo no está muerto cifra]
© LaCuerda.net · legal notice · privacy · es · en · pt · contact us
DINAMICO