Guitar Chords » J »Jaime Murrell » Pon Aceite En Mi Vida (Tab)

Pon Aceite En Mi Vida
Jaime Murrell

Lyrics, Chords & Tabs for Guitar, Bass & Ukulele

  • e |---------------------|-----------|
    B |---------------------|--------0--|
    G |---------------------|----0------|
    D |-2--1---0------0--1--|-2---------|
    A |-----------2---------|-----------|
    E |---------------------|-----------|
    
    e |---------------------|------------------------------|
    B |---------------------|-----0------------------------|
    G |---------------------|--0----2---0--------0------0--|
    D |-2--1---0------0--1--|--------------2-----0------0--|
    A |-----------2---------|------------------0-----0-----|
    E |---------------------|------------------------------|
    
    
    Estrofa:
    
       Em7             Am7          D              G
    //Pon aceite en mi vida Señor, de tu fuego en mi corazón,
     Em7             Am7             Bsus4         Em-F#m7 (2da vez sin F#m7)
    
  • Hola espero les guste es la versión en vivo
    estoy 100% seguro k mi tablatura esta bien
    en este canto suena súper chido el bajeo chequen la tablatura
    esta idéntica ojala puedan dejar su comentario...
    
    Intro bajo
    
    G:-----------------------|----------------------------|
    D:------------------5---9|-----------------9—-7-------|
    A:--7-6-5-----5-6-7------|-7-6-5---5-6-7--------10—-7-|z2
    E:---------7-------------|-------7--------------------|
    
    
    
    Verso:
    Pon aceite en mi vida Señor...
    1ra vez
    
       Em^7
    G:-----------|-----------|------7-------|--------------|
    D:-----------|-----7-----|----7---7-----|-----5---4----|
    A:-----7-----|---7---7-7-|--5—------5---|---5---5--5---|
    E:-0-7--70---|-5------5--|-----------5--|-3------------|
    
       Em^7
    G:-------------|-------------|----------|---------------|
    D:-------------|-----7-------|-----9----|----------2----|
    A:-7--------7--|---7---7-----|---9---9--|-----7---------|
    E:---7-0--7--7-|-5-------5-6-|-7------7-|-0-7----2--2---|
    
    
    Pon aceite en mi vida Señ
  • intro:
    
    2 veces
    G:---------------0-4-----|---------------4-2-0---|
    D:-2-1-0---0-1-2---------|-2-1-0---0-1-2-------2-|
    A:-------2---------------|-------2---------------|
    E:-----------------------|-----------------------|
    
    
    verso:
    2 veces
    pon aceite en mi vida Señor...
    G:-----------------2-----------7-----------------|
    D:-----2---------2---2-------7---7---------5-----|
    A:---2---2-----0-------0---5-------5-----5---5---|
    E:-0-------0---------------------------3-------3-|
    
    
    G:-----------------2-----------4-----------------|
    D:-----2---------2---2-------4---4---------------|
    A:---2---2-----0-------0---2-------2-------------|
    E:-0-------0---------------------------0-2-------|
    
    
    
    coro:
    y me gozare...
    G:-----------------------------------------------|
    D:-----------------------------------------------|
    A:-5-3-4-5-5-5-3-4-7-5-6-7-7-7-5-7---------------|
    E:-----------------------------------------------|
    
    
    y me alegrare...
    G:--------------------------------------
  • +
    ¡Colabora con nosotros!
    Envíanos tu versión de esta canción
  • Tutorial
    HD
    Pon Aceite En Mi Vida Señor Jaime Murriel Tutorial de Bajo
    10:33

Pon Aceite En Mi Vida Lyrics
Estrofa:
//Pon aceite en mi vida Señor, de tu fuego en mi corazón,
Pon aceite en mi vida Señor, mi lámpara aviva hoy//
Y me gozaré, y me alegraré.
El me ha vestido de lino fino, del gozo de su Salvacion.
Y me gozaré, y me alegraré.




[Pon Aceite En Mi Vida acordes][Pon Aceite En Mi Vida cifra]
© LaCuerda.net · legal notice · privacy · es · en · pt · contact us
DINAMICO