Guitar Chords » J »Jaime Murrell » Aquí estoy (Tab)

Aquí estoy
Jaime Murrell

Lyrics, Chords & Tabs for Guitar, Bass & Ukulele

  •   A     E  F#m7             C#m7       E
    Aqui estoy  te ofrezco todo lo que soy.
      A     E  F#m7             C#m7       E
    Aqui estoy, un sacrificio quiero ser.
    D         E     D/F#     E
    Toma mi ser, mi vida entrego a Ti.
    
           A    D      E
    Porque Tu eres mi Dios,
          A       D/F#  E
    eres digno de adoración,
          A          D     E      D  E
    una ofrenda de amor seré para Ti.
    
    
    
    Julio Cesar Oviedo
    Ovie2000@bellsouth.net
    Dios Les Bendiga***
  •   A9    E/G# F#m-ad4               C#m     E2   F#m7 -E-D-E
    Aquí estoy,         te ofrezco todo lo que soy
      A9    E/G# F#m-ad4              C#m    E2   F#m7-E-D/F#   C#m-D
    aquí estoy,         un sacrificio quiero ser.
            D9    F#    E       A   C#m  D  E
    toma mi ser,    mi vida  entrego  a  ti.
    
    Coro:
           A9   D/F#   D     E     D/F#-E/G#
    Porque tu  eres   mi   Dios,
          A9      D/F#-E          D/F#-E
    eres Digno de adoración,
          A9          D/F#   D     E   D/F#-E/G#
    una ofrenda de   amor       seré
          B-C#m-D-E
    para Ti.
    
      A#9   F/A  Gm -ad4               Dm      F2   Gm7  -F-D#-F
    Aquí estoy,         te ofrezco todo lo que soy
      A#9   F/A  Gm -ad4              Dm     F2   Gm7 -F-D#/G   Dm -D#
    
  • Intro:   A - E/G# - F#m7      A-D9    E
             A - E/G# - F#m7      A-D9
    
    
      A9   A9/G# F#m-ad4               C#m     E2   F#m7 -E-D-E
    Aquí estoy,         te ofrezco todo lo que soy
      A9   A9/G# F#m-ad4              C#m    E2   F#m7 -E-D   A-D9
    aquí estoy,         un sacrificio quiero ser.
            D/E  D9             D/F#  E/G#    D/A
    toma mi ser,    mi vida  en tre    go  a  ti.
    
    
           A9   D/F#  A/C#   E     D-E/G#
    Porque tu  eres   mi   Dios,
          A9      D/F#  E          D-E/G#
    eres Digno de adoración,
          A9          D/F#  A/C#   E   D-E/G#
    una ofrenda de   amor       seré
          D9-E-D/F#-E/G#
    para Ti.
    
  •          A                   E
    E|--------------------------------------------------------------
    B|-2-----5------3------2-------------5------3------2------------
    G|-2-2------2------2-----2-------2------2------2-----2----------
    D|-2---2------2------2-----2--4----4------4------4-----4--------
    A|-0--------------------------0---------------------------------
    E|--------------------------------------------------------------
    
    
           F#m                    A        D
    E|--------------------------------2--2--------------------------
    B|-2-----5------3------2-------2--3--3------3-----3-------------
    G|-2-2------2------2-----2-----2--2--2----2-----2---2-----------
    D|-4---4-------------------2---2--0--0--0-----0-----------------
    A|-4----------4------4---------0--------------------------------
    E|-2------------------------------------------------------------
    
    
    
    
    
  • e-----------------------------------------------]
    B-----------------------------------------------]
    G-----------------------------------------------]
    D-----------------------2--0---------2--0-------]
    A----0-2-4--7--5--4-2-0--------4-2-0-------4-2--]
    E-----------------------------------------------]
    
    INMEDIATAMENTE SE TOCA EL ACORDE (MI) Y (RE)
    
    Y ESO SERIA EN EL PRINCIPIO
    Y YA SIGUE LO NORMAL
    EL FINAL SERIA IGUAL QUE ARRIBA
    
    
    
    
    A     E  F#m             C#m       E
    Aqui estoy  te ofrezco todo lo que soy.
      A     E  F#m             C#m       E
    Aqui estoy, un sacrificio quiero ser.
    
  • +
    ¡Colabora con nosotros!
    Envíanos tu versión de esta canción

Aquí estoy Lyrics
Aqui estoy te ofrezco todo lo que soy.
Aqui estoy, un sacrificio quiero ser.
Toma mi ser, mi vida entrego a Ti.
Porque Tu eres mi Dios,
eres digno de adoración,
una ofrenda de amor seré para Ti.
Julio Cesar Oviedo
Ovie2000@bellsouth.net
Dios Les Bendiga***




[Aquí estoy acordes][Aquí estoy cifra]
© LaCuerda.net · legal notice · privacy · es · en · pt · contact us
DINAMICO