Guitar Chords » J »Jaguares » Te Lo Pido Por Favor (Tab)

Te Lo Pido Por Favor
Jaguares

Lyrics, Chords & Tabs for Guitar, Bass & Ukulele

  • e|-2-0-2-2h3-2------|-2-0-2-2h3-2------|-2-0-2-2h3-2------|
    B|-3-----3----------|-3-----3----------|-3-----3----------|
    G|-2----------------|-2----------------|-2----------------|
    D|------------------|------------------|------------------|
    A|------------------|------------------|------------------|
    E|------------------|------------------|------------------|
    
    G D    G D    A D
    
          B7             Em     A
    Donde estés hoy y siempre
                    D  Bm
    yo te quiero conmigo
                 Em  F#
    necesito cuidado,
                 Bm
    necesito de ti.
    
         B7          Em   A
    Si me voy donde vaya,
    
  •    D                  D
    e|-2-0-2-3-2--------|-2-0-2-3-2--------|
    B|-3----------------|-3----------------|  
    G|-2----------------|-2----------------|  
    D|------------------|------------------|  
    A|------------------|------------------|  
    E|------------------|------------------|
    
      G D    G D    A D
    (Mientras esta el solo de armónica) 
    
          B7             Em     A
    Donde estes hoy y siempre
                    D  Bm
    yo te quiero conmigo
                 Em  A
    necesito cuidado, 
                 D  
    necesito de ti.
    
    
  • D G D G D A D
    
    ESTROFA
    
         B7             Em   A
    Donde estes hoy y siempre
                   D Bm
    yo te quiero conmigo
                 Em F#
    necesito cuidado,
        Bm
    necesito de ti.
    
         Bm         Em   A
    Si me voy donde vaya,
              D   Bm
    yo te llevo conmigo
               Em F#
    no me dejes ir solo
               Bm B7
    
  • e----2-0----2----2*3----2-|
    B---3------3----3------3--|
    G--2------2----2------2---|
    D-0------0----0------0----|X 4
    A-------------------------|
    E-------------------------|
    Guitarra 2
    e----2~~~~----------------|
    B---3~~~~-----------------|
    G--2~~~~~-----------------|
    D-0~~~~-------------------|
    A-------------------------|
    E-------------------------|
    
    
    Guitarra 1
    e----------|
    B----------|
    G-----0----|
    D-0*2---0--|
    
  • E |-------------------|
    B |------5--7--8--5---|
    G |---5---------------|
    D |---5---------------|
    A |---7---------------|
    E |-------------------|
    
    Fig. 1
    E |-------------------|
    B |---------------2---|
    G |---------------2---|
    D |--------0------2---|
    A |--0--2------0------|
    E |-------------------|
    
            Fig. 2
    D            Bm          Em            F#m      Bm
    E |-------2--|----------|----------|---------|----------|
    B |-----3----|-------3--|----------|---------|-------3--|
    G |---2------|-----4----|-------0--|-------3-|-----4----|
    
  • Intro:
    
     0:18
    G|------------------------------------------------------|
    D|------------------------------------------------------|
    A|----------------5--5-5----------5--5-5----------5-5...|
    E|3--3-3--3--3-3----------3--3-3----------5--5-5--------|
    
    Verso
    Donde estes hoy y 
      0:36
      siempre....
    G|---------------------------------------------------|
    D|---------------------------------------------------|
    A|----------------5--5-5--2--2-2---------------2--2-2|
    E|0--0-0--5--5-5------------------0--0-0--1--0-------|
    
     0:50
     vaya......
    G|-----------------------------------------------------|
    D|-----------------------------------------------------|
    A|----------------5--5-5--2--2-2---------------2-2-2///|
    E|0--0-0--5--5-5------------------0--0-0--1--0---------|
    
     1:03
     cuidar..(esta parte se toca un poco mas rapido)
    G|--------------------------------------------------|
    D|--------------------------------------------------| X2
    A|--------------------------5--5-5-5--5--2--2
  •                                                                   <
    C |----------------|----------------|----------------|--------X-------|
    t |----------------|----------------|----------------|--------o-------|
    F |o-o-o-o-o-o-o-o-|o-o-o-o-o-o-o-o-|o-o-o-o-o-o-----|----------------|
    S |----o-------o---|----o-------o---|o---o---o---oooo|f---------o-o---|
    B |o-----o-o-------|o-----o-o-----o-|--o---o---o-----|--------o-------|
    hp|--------------o-|----------------|----------------|--------------o-| 
       1 + 2 + 3 + 4 +  1 + 2 + 3 + 4 +  1 + 2 + 3 + 4 +  1 + 2 + 3 + 4 +
    
    Verso 1                                                                   
    
    F |o-o-o-o-o-o-o-r-|o-o-o-o-o-o-o-o-|o-o-o-o-o-o-o-o-|o-o-o-o-o-o-o-o-|
    S |----o-------o---|----o-------o---|----o-------o---|----o-------o---|
    B |o-----o-o-------|o-----o-o-------|o-----o-o-------|o-----o-o-------|
    hp|----------------|----------------|--------------o-|----------------|                
       1 + 2 + 3 + 4 +  1 + 2 + 3 + 4 +  1 + 2 + 3 + 4 +  1 + 2 + 3 + 4 +
    
    
    C |----------------|----------------|X---------------|----------------|
    F |o-o-o-o-o-o-o-o-|o-o-o-o-o-o-o-o-|--o-o-o-o-o-o-r-|o-o-o-o-o-o-o-o-|
    
  • Pues los solos de la armonica ya los saque, estubieron muy dificiles
    pero aqui estan, si encuentran algun error me avisan y recuerden
    que es para armonica en tono de Do.
    
    
    *Armonizada en Do (C)
    
    Leyenda:
    
       #   - Nota soplada
      (#)  - Nota aspirada
       *   - Bending de nota
       /   - Deslizamiento de nota
       ~   - Agitacion de la armonica
     //#\\ - Tiempos....
    
    
    En solo del intro acompaña a la guitarra asi:
    
    Intro:
    
    1. -2-0-2-3-2--
    2. -3----------
    3. -2---------- .... 1 //2 tiempos\\   
    4. -0----------
    5. ------------
    6. ------------
    
    1. -2-0-2-3-2--
    2. -3----------
    3. -2---------- .... (4) 5   
    4. -0----------
    5. ------------
    6. ------------
    
    1. -2-0-2-3-2--
    2. -3----------
    3. -2---------- .... (6) //2 tiempos\\ 5 (6)  
    4. -0----------
    5. ------------
    6. ------------
    
    1. -2-0-2-3-2--
    2. -3----------
    3. -2---------- .... 4 3 (3)~
    4. -0----------      4 3 (4)* (4)* (4)* 
    5. ------------      4 (3) 3 2 (3)
    6. ------------      1 2 3 4 2 (2) (
  • Intro
    Todo esto se toca 4 veces.
    
    (La- re – fa# ) se toca como acorde  e inmediatamente después se 
    tocan las siguientes notas.
    
    Mi fa# sol fa#  
    
    
    Re            Sim            Mim
    Donde estes hoy y siempre
    Re re re la fa# la sol
    
    Re            Sim            Mim      Fa#m
    Yo te quiero conmigo necesito cuidados
    La si do# si la re si      la la la sol fa# sol sol
    
    Sim
    Necesito de ti
    La si do# do# re si
    
    Mim 	Re
    Si me voy donde vaya
    Re re re la fa# la sol
    
    Sim 
    Yo te llevo conmigo
    La si do# si la re si
    
                Mim            Fa#m
    No me dejes ir solo
    La la la sol fa# sol sol
    
               Sim
    Necesito de ti
    La si do# do# re si
    
    	Mim
    Tu me sabes bien cuidar
    Fa# fa# fa# mi mi re mi
    
    La
    Tu me sabes bien guiar
    Fa# fa# fa# mi mi re mi 
    
    	Re
    Todo lo haces muy bien tu
    Mi mi mi re mi fa# fa# re
    
    	Sim
    Ser muy buena es tu virtud
    Fa# fa# fa# mi re mi fa#
    
    
    Mim	
    Como te puedo pagar
    Re mi fa# mi fa# sol mi
    
    	La
    Todo lo que haces por mi
    F
  • +
    ¡Colabora con nosotros!
    Envíanos tu versión de esta canción
  • Tutorial
    HD
    Como Tocar Te Lo Pido Por Favor - Jaguares [Tutorial Guitarra]
    6:01

Te Lo Pido Por Favor Lyrics
ESTROFA
Donde estes hoy y siempre
yo te quiero conmigo
necesito cuidado,
necesito de ti.
Si me voy donde vaya,
yo te llevo conmigo
no me dejes ir solo
necesito de ti
Tú me sabes bien cuidar
tú me sabes bien guiar
todo lo haces muy bien tú,
ser muy buena es tu virtud.
Como te puedo pagar,
todo lo que haces por mi,
todo lo feliz que soy
todo este inmenso amor.
Solamente con mi vida,
pues ten mi vida,te la doy.
Pero no me dejes nunca, nunca, nunca,
te lo pido por favor.
INTER
Tú me sabes bien guiar
tú me sabes bien cuidar
todo lo haces muy bien tú,
ser muy buena es tu virtud.
Como te puedo pagar,
todo lo que haces por mi,
todo lo feliz que soy
todo este inmenso amor.
Solamente con mi vida,
pues ten mi vida,te la doy.
Pero no me dejes nunca, nunca, nunca,
te lo pido por favor.
Pero no me dejes nunca, nunca, nunca,
te lo pido por favor
Pero no me dejes nunca, nunca, nunca,
te lo pido por favor
FINAL
C/cadd9 B D X4




[Te Lo Pido Por Favor acordes][Te Lo Pido Por Favor cifra]
© LaCuerda.net · legal notice · privacy · es · en · pt · contact us
DINAMICO