Guitar Chords » J »Jaguares » Fin (Tab)

Fin
Jaguares

Lyrics, Chords & Tabs for Guitar, Bass & Ukulele

  • e|-------10------10--------10-|-----10---------|
    B|---8-------8-------7---7----|-7--------------|
    G|-7---7-------7-------7------|---7------------|
    D|----------------------------|----------------|
    A|----------------------------|----------------|
    E|----------------------------|----------------|
    
    (guitarra 2):                   h  p
    e|----------------------------|----------------|
    B|----------------------------|-7/8/7----------|
    G|----------------------------|-------7--------|
    D|----------------------------|----------------|
    A|----------------------------|----------------|
    E|----------------------------|----------------|
    
                                           .....(deja sonar la nota)
    
      Participan 2 guitarras en la introducción, pero la puedes tocar asi:
    
                                     h  p
    
  • INTRO: Am
    
    C
    Si yo me fuera 
       C1     Bm    B9
    antes de amarte 
    Am
    me suicido 
    F 
    cayendo al mundo 
    G
    con mis alas 
    C
    y aquí en la tierra 
        C1      Bm    B9
    te doy mi esencia
    Am 
    te doy mis cielos 
    F
    todos mis sueños 
    
  • C
    Si yo me fuera 
                      Bm
    antes de amarte 
    Am
    me suicido 
          F  
    cayendo al mundo 
    G
    con mis alas 
    C
    y aquí en la tierra 
                          Bm
    que tu distancia 
            Am                 
    te doy mis cielos 
        F
    todos mis sueños 
            G
    con tal de ver el calor 
    
  • e|-------10------10--------10-----------------|
    B|---8-------8-------7---------7h8h7----------|
    G|-7---7-------7-------7----------------------|
    D|--------------------------------------------|
    A|--------------------------------------------|
    E|--------------------------------------------|
    
    Guitarra 2
    e|--------------------------------------------|
    B|--------------------------------------------|
    G|--------------------------------------------|
    D|--------------------------------------------|
    A|--------------------------------------------|
    E|--------------------------------------------|
                                           
    
    Esta parte es la que toca el bajo pero asi es 
    en guitarra después de haber tocado 
    el riff 1 dos veces en el intro
    e|--------------------------------------------|
    
  • Por Edwin Ortiz (edwalt@es.com.sv)
    (100% El Salvador)
    
    Esta es una correccion al Intro con que habia colaborado antes, mas 
    TODAS las demas tablaturas en la cancion.
    
    I. INTRO: C9
    Dos guitarras simultaneamente. 
    nota: en este tab  ~ significa mantener la nota, no un vibrato :)
    
    En la primera guitarra la ultima nota es la primera del siguiente 
    circulo            osea esta---\
                                    |
    Guitarra 1                      V
    e|----10----------------------------10----------------------|
    B|--8-----8-------------7h8p7-----8-----8-------------7h8p7-|
    G|-7-7------7-7~~~--------------7~-7------7-7~~~------------|
    D|----------------------------------------------------------|
       |__________________________x2__________________________|
    
    Guitarra 2
    e|----10-----10-----10-----10-------10-----10-----10-----10--|
    B|--8-----8------8------8---------8-----8------8------8------|
    G|-7-7------7------7------7-----7--7------7------7------7----|
    D|------------------
  • Esta son lasfiguras que toca Sabo Romo en la canción 
    de FIN del disco 'Bajo el azul de tu misterio'
    
    
    Intro:
    
    G|-------------------------------------------|
    D|-------------------------------------------|
    A|--15-14-12----------15-14-17-19-21---------|
    E|-----------15-14-15------------------------|
    
    
    Versos x2
    
    G|-------------------------------------------------------------------------|
    D|-------------------------------------------------------------------------|
    A|-3-3-3--3-3-3--3-3-3--3-3-3-3-2-2-2--2-2-2-------------------------------|
    E|--------------------------------------------5-5-5-1-1-1-3-3-3-3-3-3-3----|
    
    En la parte antes donde Saul canta: 'de tu calma, de tus manos, de tu risa 
    de tu amar'.   Se toca lo siguiente:
    
    pre-coro:
    
    G|---------------------------------------------|
    D|-----7-----7-----7-----7----7----------------|
    A|---7-----7-----7-----7-----7-----------------|
    E|-5-----5-----5-----5-----5--3-3-3-3-3--------|
    
    y enseguida entra el coro: 
  •   Intro
      Am
    G|-------------------------||
    D|7-5-4-2-4-5-7s9-7-9s14s21||
    A|0------------------------||
    E|-------------------------||
    
      Si yo me fuera...
      C                               Bm
    G|-------------------------------|------------|
    D|-------------------------------|------------|
    A|3--3-3—-3--3-3--3--3-3--3--3-3-|2--2-2--2--2|
    E|-------------------------------|------------|
    
                       Am          F           G
    G|----------------|-----------|-----------|-----------------|
    D|--------5---4---|-----------|-----------|-----------------|
    A|2-2—2s5---2---2-|0--0-0-----|-----------|----------------2|
    E|----------------|------3-3-2|1-1-1-0-1-2|3—3-3—-3-3-3-2-3-|
    
      Repite dos veces esta estrofa
    
      De tu calma...
      Am           Amaj7       Am7          G
    G|------------|-----------|------------|------------|
    D|-----5------|-----5-----|-----5------|------------|
    A|---7---7----|---7---7---|---7---7----|------------|
    E|-5-------5--|-5
  • Como leerla:
    R-  Ride
    C Crash
    H Hi-Hat (contra tiempo)
    S Snare (tarola)
    t tom1
    T tom2
    F floor tom (tom de piso)
    B Bass Drum (Bombo)
    
    Esta esta mas completa que la que estaba anteriormente, es toda la canción.
    
      |---repetir-6x---|
    R -----x-------x---|-----x-----------|
    S -----------------|-------------o---|
    B -----o-------o---|-----o---o-------|
    
                       |---repetir-1x----|
    C -X---------------|-----------------|-----------------|
    H ---x-x-x-x-x-x-x-|-x-x-x-x-x-x-x-x-|-x-x-x-x-x-x-x-x-|
    S -----o-------o---|-----o-------o---|-----o-----o-o---|
    B -o-----o-o-------|-o-----o-o-------|-o-----o-o-------|
    
     |---repetir-5x----|                 |---repetir-1x----|
    C -----------------|-X---------------|-----------------|
    H -x-x-x-x-x-x-x-x-|---x-x-x-x-x-x-x-|-x-x-x-x-x-x-x-x-|
    S -------o-----o---|-----o-------o---|-----o-------o---|
    B -o-------o-o-----|-o-----o-o-------|-o-----o-o-------|
    
                       |---repetir-5x----|
    H -x-x-x-x-x-x-x-x-|-x-x-x-
  • Ok, aquí está la canción FIN de los Jaguares,
    hay algunos lugares en los que los redobles están medio
    raros, así que mejor escuchen bien para que le 
    entiendan.
    
    El esquema es así:
    
    ||  x    |>platillo (es decir, de remate, o como quieran llamarlo.)
    ||--X----|>contratiempos o si está esto||--&---se le pega al ride 20´ 
    ||-9-2---|>toms (9 es el grande, 2 es el chico ¿ok?)
    ||--0----|>tarola
    ||--7----|>tom piso
    ||--0----|>bombo
    
    En esta canción, inicia y se usa mucho esto, llamémoslo el RIFF 1. ¿ok?
    repítanlo 3 veces...
    
    Riff1
    ||--&----|--&----|--&----|--&----|--&----|
    ||-------|-------|-------|-------|-------|
    ||-------|-------|-------|-------|-------|
    ||-------|-------|-------|-------|-------|
    ||--0----|--0----|--0----|--0----|--0----|
    
    Luego, el primer verso dice asi:
    
         Éstos dos '0' significan que le pegas a la 
         tarola con las dos baquetas AL MISMO TIEMPO, 
         y así logras un sonido bastante peculiar ¿ok?
          
  • +
    ¡Colabora con nosotros!
    Envíanos tu versión de esta canción
  • Tutorial
    HD
    Como tocar FIN en guitarra - Jaguares [Tutorial Somos Posers]
    9:14

Fin Lyrics
(guitarra 2): h p
.....(deja sonar la nota)
Participan 2 guitarras en la introducción, pero la puedes tocar asi:
h p
Si yo me fuera antes de amarte
me suicido cayendo al mundo con mis alas
y aquí en la tierra te doy mi esencia
te doy mis cielos todos mis sueños
con tal de ver el calor
de tu calma
de tus manos
de tu risa
G@
de tu alma
Fin,
todo tiene un fin
menos el fuego de tus ojos
que se pierden
profundo en el misterio
de las historias
que no cuenta
el celestial calor del sol
Y después de un tiempo te vuelvo eterna
te saco del mundo, te purifico
y nos perdemos volando
G@
en lo eterno
Dame tu vida
te doy mi esencia
nuestra última entrega
G@
de un gran principio
Fin,
todo tiene un fin
menos el fuego de tus ojos
que se pierden
profundo en el misterio
de las historias
que no cuenta
el celestial calor del sol
Fin,
todo tiene un fin
menos el fuego de tus ojos
que se pierden
profundo en el misterio
de las historias
que no cuenta
el celestial calor del sol
pisadas:
Transcripcion por:
AlEjAnDrO ViRaMoNtEs
(luzbel70@hotmail.com)
LuIs GuIlLeRmO bEdOlLa
(luis_bedolla@hotmail.com
Quejas, sugerencias y mentadas de madre a:
luzbel70@hotmail.com y luis_bedolla@hotmail.com




[Fin acordes][Fin cifra]
© LaCuerda.net · legal notice · privacy · es · en · pt · contact us
DINAMICO