Guitar Chords » G »Gilda » Se me ha perdido un corazón (Tab)

Se me ha perdido un corazón
Gilda

Lyrics, Chords & Tabs for Guitar, Bass & Ukulele

  • E                       C#m
    Se me ha perdido un corazón
                               F#m
    Si alguien lo tiene por favor
               A  B7
    Que lo devuelva.
    
    
    Yo lo tenía junto a mí
    Pero la puerta de su amor
    Estaba abierta
    
    
                          C#m
    Este vació que hay en mí
                        F#m
    Hace crecer la soledad
              A                C#m
    Y siento que me estoy muriendo
    
    
  • B  4-5-4-7-5-5-4-5   4-5-4-7-5-5-4-- --5-4-
    G                                  -6-- - -6-6-4
    
    
    B  4-5-4-7-5-5-4-5   4-5-4-7-5-5-4-- --4-5-7----5
    G                                 -6-
    
    
      E                     C#m
      Se me ha perdido un corazón
                                A
      si alguien lo tiene por favor
        F#m        B
      que lo devuelva
    
      E                  C#m
      Yo lo tenía junto a mi
                            A
      pero la puerta de su amor
        F#m        B
    
  • -------------------------------------------------------------6------
    ------------------------------------------------9-11-9---------9-6--
    7-7-6---11/16-16-14----14/16/14---7-7-6------------------7/9-------9
    ------9-------------17----------7-------9-9-7-5--------7------------
    
    ---------------------------------------------------------------------
    -----------------------------------------------------6-9-------------
    --------------7-11-------4-7---4-7---4-7---------6-7-----7-7-6---7-11
    0-4-7-0-4-7-9------9-7-5-----5-----5-----7-7-7-9----------------9----
    
    -----------------------------------
    -----------------------------------
    -------4-7---4-7---4-7----------6-7
    -9-7-5-----5-----5-----7-7-7-9----
    
    ---------------------------------------------------------------------
    ------------9---------------9----------------------------------------
    9---9-----9---7-9---------9---------6---------------7-11---7-11---4-7
    --9---9-7---------9-2-9-7-----7-7-9---0-4-7-0-4-7-9------9------5----
    
    -----------------
  • .... =la nota dura un poco mas
      /  =pasar de nota sin dejar de soplar
    
    Aka esta la intro
    
     4(5)5/6(5)(5)5(5)
     4(5)5/6(5)(5)5(4)   (5)5(4)4
    
     4(5)5/6(5)(5)5(5)
     4(5)5/6(5)(5)5(4)
     *5 (5) 6   (6)*
    
     Si le kieren dar un mejor final aka esta,
     pero el otro es el mas parecido
      *(5).... 6....*
    
    
    yo se que no esta del todo bien, pero por lo menos es parecido.
    Escuchen bien el tema.
    
    
    LUCIANO MATIAS 25588
    esteeselmaildeluciano@yahoo.com.ar
  • +
    ¡Colabora con nosotros!
    Envíanos tu versión de esta canción

Se me ha perdido un corazón Lyrics
Se me ha perdido un corazón
si alguien lo tiene por favor
que lo devuelva
Yo lo tenía junto a mi
pero la puerta de su amor
estaba abierta
Se fue volando detras de otra ilusion
de esas que llevan a perder la razón.
Este vacío que hay en mi
hace crecer la soledad
y siento que me estoy muriendo
se me ha perdido un corazón
por eso hoy quiero brindar
por los fracasos del amor.
Todo lo dí sin esperar
era feliz pudiendo amar
como podre sobrevivir
sin su calor no se vivir.
Se me ha perdido un corazón
si alguien lo tiene por favor
que lo devuelva.
Yo lo tenía junto a mi
pero la puerta de su amor
estaba abierta
Se me ha perdido un corazón
si alguien lo tiene por favor
que lo devuelva.
Yo lo tenía junto a mi
pero la puerta de su amor
estaba abierta
Todo lo dí sin esperar
era feliz pudiendo amar
como podre sobrevivir
sin su calor no se vivir.
Se me ha perdido un corazón
si alguien lo tiene por favor
que lo devuelva.
Yo lo tenía junto a mi
pero la puerta de su amor
estaba abierta
Atte: kruzelvox




[Se me ha perdido un corazón acordes][Se me ha perdido un corazón cifra]
© LaCuerda.net · legal notice · privacy · es · en · pt · contact us
DINAMICO