Guitar Chords » G »Gilda » Paisaje (Tab)

Paisaje
Gilda

Lyrics, Chords & Tabs for Guitar, Bass & Ukulele

  • Intro : C
    
    Yo soy Gilda
    
    Dm                                         Dm   C
    No debemos de pensar que todo es diferente
    Bb                                         Bb  B
    mil momentos como este quedan en mi mente
    C
    no se piensa en el verano cuando cae la nieve
    F                            A
    deja que pase un momento, y volveremos a querernos.
    
    
    Jamas la logica del mundo nos ha dividido
    ni el futuro tan incierto nos ha preocupado
    una vez los dos dijimos hay que separarnos
    mas desisimos las maletas, antes de emprender el viaje.
    
    
    
  • [Intro] Dm  Gm  Dm  Gm  D
    
    Dm             Gm7
    E|-5-5-5-5----8--5-5-5-5----------|
    B|----------8---------------------|
    G|--------------------------------|
    D|--------------------------------|
    A|--------------------------------|
    E|--------------------------------|
    
    Dm
    No debemos de pensar que ahora es diferente,
    Gm7
    Mil momentos como este quedan en mi mente;
    C7
    No se piensa en el verano cuando cae la nieve
    F                              A7
    Deja que pase un momento y volveremos a querernos
    
    Dm
    
  •    Dm                      C
    e|-------------------------------------|
    b|-------------------------------------|
    g|-----------2-----------2-------------|
    D|-0-0-0-0-3---0-0-0-0-3-----------2-5-|
    A|-------------------------3-3-3-3-----|
    E|-------------------------------------|
    
       C                       Dm
    e|-------------------------------------|
    b|-------------------------------------|
    g|-----------------------------------2-|
    D|---------2-5---------2-5-0-0-0-0-3---|
    A|-3-3-3-3-----3-3-3-3-----------------|
    E|-------------------------------------|
    
       Dm                  C                     Dm
    e|-1-0---1-0---1-0-1-----0-----0-----0---1-0---|
    b|-----3-----3-------3-1---3-1---3-1---3-----3-|
    g|---------------------------------------------|
    
  • +
    ¡Colabora con nosotros!
    Envíanos tu versión de esta canción

Paisaje Lyrics
Yo soy Gilda
No debemos de pensar que todo es diferente
mil momentos como este quedan en mi mente
no se piensa en el verano cuando cae la nieve
deja que pase un momento, y volveremos a querernos.
Jamas la logica del mundo nos ha dividido
ni el futuro tan incierto nos ha preocupado
una vez los dos dijimos hay que separarnos
mas desisimos las maletas, antes de emprender el viaje.
Estribillo [2 veces]
Tu no podras faltarme cuando falte todo a mi alrededor
tu aire que respiro en aquel paisaje donde vivo yo
tu, tu me das la fuerza que se necesita para no marchar
tu me das amor.
Rio Cuarto - Corodoba - Argentina.
Espero que les guste




[Paisaje acordes][Paisaje cifra]
© LaCuerda.net · legal notice · privacy · es · en · pt · contact us
DINAMICO