Guitar Chords » F »Fobia » Hipnotízame (Tab)

Hipnotízame
Fobia

Lyrics, Chords & Tabs for Guitar, Bass & Ukulele

  • D                                      Bm
    pude cerrar los ojos mas no pude dejar de verte
    D                                  F#m    G
    y dejar de dormir mas no dejar de soñar
    
    D                                      Bm
    Puedo callar las voces mas no puedo dejar de oirte,
    D                                   F#m   G
    puedo dejar de ser pero no puedo dejar de estar.
    
    
    C    D        Am     F
      Bésame, hipnotizame
                C
    ya no me importa mas
              G
    róbame el alma hechizame
    
    
    (SIGUEN LOS MISMOS ACORDES PARA LAS ESTROFAS)
    
  • e----------------------------------
    B---------------------0-----0------
    G---0-------0-------7-----7---7----
    D-----7---7---7---5-----4-------4--
    A-5-----4-------0------------------
    E----------------------------------
    
    e---------------
    B---------------
    G-------0-------  x 2
    D---4-----4---4-
    A-2---2-----2---
    E---------------
    
    VERSOS
    
    Pude cerrar los ojos mas no pude dejar de verte,
    e----------------------------------------------------------------
    B---------------------0-----0------------------------------------
    G---0-------0-------7-----7---7------------0-------------0-------
    
  •  C   D/F#      Am  Fmaj7             C
    Besame....Hipnotizame.....Ya no me importa mas
              G
    Robame el alma hechízame
    
    
    El segundo verso es igual que el primero pero va acompañado
    por una guitarra acustica que toca el siguiente riff:
    
                                             Escucha con cuidado
                                             el número de veces
                                             que se toca esta sección
    e)|---0-------0---------0-------0-----| |---0----5--3--0----|
    b)|-----3------3----------3------3----| |-----3-------------|
    g)|--------2-----------------2--------| |-------------------|
    d)|-----------------------------------| |-------------------|
    a)|-----------------------------------| |-------------------|
    e)|-----------------------------------| |-------------------|
    
    2nd Chorus: Igual que el primero pero se toca 2 veces.
    
  • E|----------------------------------|
    B|--------------------3-----3---3---|
    G|---0-----0------0-----4-----4---4-|
    D|-----7-----7------4-----4---------|
    A|-5-----4-----4--------------------|
    E|----------------------------------|
    
      1.________________________________
    E|----------------------------------|
    B|----------------------------------|
    G|-------0---------------0----------|
    D|---4-------4---4---4-------4---4--|
    A|-2---2---2---2---2---2---2---2----|
    E|----------------------------------|
      
      2.__________________________________
    E|------------------------------------|
    B|------------------------------------|
    G|------------------------------------|
    D|------------------------------------|
    
  • Esta es la version Acustica de Hipnotizame,
    la cual aparece en el concierto de sus 20 años.
    En algunas partes se tocan los acordes y no se puntean.
    Escuchen la cancion,sabran a lo que me refiero, disfruten.
    
    Intro
    ----------------------------------|--------------------------------------|
    ----------------------0-----0-----|--------------------------------------|
    ----0-------0-------7-----7---7---|--------0-----------------0-----------|
    ------7---7---7---5-----4-------0-|----4---------4---4---4---------4---4-|
    --5-----4-------0-----------------|--2---2---(2)---2---2---2---(2)---2---|
    ----------------------------------|--------------------------------------|
    
    
    ----------------------------------|--------------------------------------|
    ----------------------0-----0-----|--------------------------------------|
    ----0-------0-------7-----7---7---|--------0-----------------0-----------|
    ------7---7---7---5-----4-------0-|----4---------4---4---4---------4---4-|
    --5-----4-------0----------------
  • Aquí les mando esta Tab p/Bajo de ésta cancion que es una de mis favoritas de
    Fobia espero que la disfruten..¡¡¡¡amor y paz!!!!
    
    
      Verso:
      0:27     0:35
    G:--------|--------|
    D:--------|--------|
    A:--2--5--|--2--5--|
    E:3------2|3------2|
    
      Coro:
      0:40
    G:---------------------|
    D:---------------------|
    A:-3--5--------3~~~----|
    E:------5/1--------3~~~|
    
      Verso:
      0:59     1:07     1:15     1:23     1:31
    G:--------|--------|--------|--------|--------|
    D:--------|--------|--------|--------|--------|
    A:--2--5--|--2--5--|--2--5--|--2--5--|--2--5--|
    E:3------2|3------2|3------2|3------2|3------2|
    
      Coro:
      1:36                  1:52
    G:---------------------|---------------------|
    D:---------------------|---------------------|
    A:-3--5--------3~~~----|-3--5--------3~~~----|
    E:------5/1--------3~~~|------5/1--------3~~~|
    
      Variación:
      2:08
    G:------------------|------------------------------|
    D:------------------|------------------------------|
    A:--
  • esta rola se la dedico a la mujer mas linda q e visto,
    -la saq en una armonica  C
    
    66 66 6 65 5 -5 66 66 -5 65
    6 66 6 66 -6 6 66 6 -5 6
    66 66 6 65 5 -6 66 66 -5 65
    66 66 6 6 -5 6 66 66 6 -56
    
    765   -6-7876 6-67656
    6-6 7 76 6-56
    
    66 66 6 65 5 -5 66 66 -5 65
    6 66 6 66 -6 6 66 6 -5 6
    66 66 6 65 5 -6 66 66 -5 65
    66 66 6 6 -5 6 66 66 6 -56
    
    765   -6-7876 6-67656
    6-6 7 76 6-56
    
    765   -6-7876 6-67656
    6-6 7 76 6-56
    
    6 -56 -56 -56 7 -67 -67 -67
    6 -56 -56 -56 7 -67 -67 -67
    
    765   -6-7876 6-67656
    6-6 7 76 6-56
    
    765   -6-7876 6-67656
    6-6 7 76 6-56
    
    deberdad rs la unica...
  • +
    ¡Colabora con nosotros!
    Envíanos tu versión de esta canción
  • Tutorial
    HD
    INTRO
    Como tocar HIPNOTIZAME en guitarra - Fobia [Tutorial Rockstars]
    2:38

Hipnotízame Lyrics
pude cerrar los ojos mas no pude dejar de verte
y dejar de dormir mas no dejar de soñar
Puedo callar las voces mas no puedo dejar de oirte,
puedo dejar de ser pero no puedo dejar de estar.
Bésame, hipnotizame
ya no me importa mas
róbame el alma hechizame
(SIGUEN LOS MISMOS ACORDES PARA LAS ESTROFAS)
Puedo calmar mi mente
mas no puedo calmar mi sangre,
y puedo ser sincero
sin dejar de mentir.
Puedo quedarme cerca,
mas no puedo dejar de oirte
puedo cambiar mi vida,
mas no puedo cambiarme a mi.
Besame, hipnotizame,
ya no me importa mas,
robame el alma hechizame.
Besame, intoxicame,
ya no me importa ser,
un ser sin alma atrapame.
DISTORCION
Besame, hipnotizame,
ya no me importa mas,
robame el alma hechizame.
Besame, idiotizame,
ya no me importa ser,
un ser sin alma atrapame.
YARIEN MORENO
yem




[Hipnotízame acordes][Hipnotízame cifra]
© LaCuerda.net · legal notice · privacy · es · en · pt · contact us
DINAMICO