Guitar Chords » F »Fobia » Vivo (Tab)

Vivo
Fobia

Lyrics, Chords & Tabs for Guitar, Bass & Ukulele

  • C Am x4
    
    VERSO 1:
    C               Am
    Nos ahogaremos juntos
    C               Am
    en aguas que todos quieren probar
    C               Am
    sin importarnos como es el final
    C                 Am
    no hay otras vidas, tierra nada más..
    
    C Am x2
    
    VERSO 2:
    C             Am
    Caminaremos juntos
    C             Am
    escaparemos de la realidad
    C              Am
    
  • D               Bm
    Nos ahogaremos juntos
    D               Bm
    en aguas que todos quieren probar
    D               Bm
    sin importarnos como es el final
    D                 Bm
    no hay otras vidas, tierra nada más..
    
    
    D             Bm
    Caminaremos juntos
    D             Bm
    escaparemos de la realidad
    D              Bm
    si tropezamos no nos dolerá
    D                   Bm            G
    no existen cuerpos, mentes nada mas
          A             F#m
    eres sangre tibia y yo 
    
  • Cm Am x2
    e|---------------------------------|
    B|---------------------------------|
    G|---------------------------------|
    D|---2---2---3---2---5---2-----2---| x2
    A|-3---3---3---3---3---0---0-0---0-|
    E|---------------------------------|
    
    En total (Cm Am) se hace 4 veces en el intro
    
    C               Am
    Nos ahogaremos juntos
    C               Am
    en aguas que todos quieren probar
    C               Am
    sin importarnos como es el final
    C                 Am
    no hay otras vidas, tierra nada más..
    
    Intro (C Am) x2
    
  • e.------------------------------
    B.-8-8-10-8-8h10----------------
    G.------------------10-9---10-9-   (x2)
    D.----------------7------7------ /
    
    C              Am     C                Am
    Nos ahogaremos juntos en aguas que todos quieren probar
    C              Am                C                    Am
    Sin importarnos como es el final, no hay otras vidas, tierra nada más
    
    Guitarra 1: C, Am (x2)
    Guitarra 2:
    e.------------------------------
    B.-8-8-10-8-8h10----------------
    G.------------------10-9---10-9-   (x2)
    D.----------------7------7------ /
    
    C           Am      C           Am
    Caminaremos juntos, escaparemos de la realidad
    C             Am             C                   Am               F
    
  • INTRO: C   Am
    
    C               Am
    Nos ahogaremos juntos
    C               Am
    en aguas que todos quieren probar
    C               Am
    sin importarnos como es el final
    C                 Am               
    no hay otras vidas, tierra nada más
    
    
    C             Am
    Caminaremos juntos
    C             Am
    escaparemos de la realidad
    C              Am
    si tropezamos no nos dolerá
    C                   Am            F
    no existen cuerpos, mentes nada mas
    
  • INTRO: C   Am
    
    (Riff) de teclado arreglado para guitarra
    E|----------------------------------------------------------------| 
    D|----------------------------------------------------------------|
    G|--12--12--14--12--12p14------------------------------(2veces)---|
    D|-------------------------14--14--15--14--14--15--14-------------|
    A|-------------------------------------------------------------15-|
    E|----------------------------------------------------------------|
    
    
    C               Am
    Nos ahogaremos juntos
    C               Am
    en aguas que todos quieren probar
    C               Am
    sin importarnos como es el final
    C                 Am               
    no hay otras vidas, tierra nada más
    
    
  • Intro (C)
    Se puede acompañar con:
    G|---------------|
    D|---------------|
    A|---15*----12*--| x2
    E|---------------|
    
    Verso 1
    Nos ahogaremos juntos…
    G|----------------|
    D|----------------|
    A|—12/15*----12*--| x4
    E|----------------|
    
    Se repite el intro 2 veces.
    
    Verso 2 (el slide solo es la priera vez)
    Caminaremos juntos…
    G|----------------|
    D|----------------|
    A|—(12)3*----0*--| x4
    E|----------------|
    
    Coro 1
    ...             Eres sangre tibia…
    G|-------------------------|
    D|-------------------------|
    A|—------------------------|
    E|--1*--1-3*--3-0*--0-1-3--|
    
    G|-----------------------|
    D|-------------2---------|
    A|—3*----0*-----3*---0*--|
    E|------------------3----|
    
    Transformaremos mundos…
    G|-------------------2--|
    D|-----------------2--2-|
    A|—(0)-2-3---3---0------|
    E|---------3---3--------|
    
    Coro 2
    ...              Eres sangre tibia…
    G|----------------------------------------|
    D|------------------------2---------------|
    A|—---1-3------3-5------2-------1-3---3-5-|
    E|-
  • +
    ¡Colabora con nosotros!
    Envíanos tu versión de esta canción
  • Tutorial
    HD
    Como tocar VIVO en guitarra ~ Fobia ⭐️ TAB
    ACORDES
    TUTORIAL ✪ Rockstars Tu
    8:39
  • Tutorial
    HD
    Como Tocar VIVO de Fobia en guitarra acustica - tutorial guitarra
    4:20

Vivo Lyrics
Nos ahogaremos juntos
en aguas que todos quieren probar
sin importarnos como es el final
no hay otras vidas, tierra nada más..
Caminaremos juntos
escaparemos de la realidad
si tropezamos no nos dolerá
no existen cuerpos, mentes nada mas
eres sangre tibia y yo
me siento vivo
uoo o o o o..
(verso igual)
segundo coro:
....y yo me siento vivo
uoo o o o o
me siento vivo
uoo o o o o
me siento vivo
uoo o o o o
me siento vivo
o o o o
me siento vivo
uoooo o o
(hay que seguir el ritmo de la cancion)




[Vivo acordes][Vivo cifra]
© LaCuerda.net · legal notice · privacy · es · en · pt · contact us
DINAMICO