Guitar Chords » F »los Fabulosos Cadillacs » Demasiada Presion (Tab)

Demasiada Presion
los Fabulosos Cadillacs

Lyrics, Chords & Tabs for Guitar, Bass & Ukulele

  • Am
    Tomaste el vaso aquél
    Dm
    aquél que no debes tomar
    E7
    saliste a caminar
    Am
    y decidiste ir la a buscar
    
    
    Am
    mil veces y una más
       Dm
    juraste no volverla a ver
         E7
    la fiesta terminó
       Am
    ya no podés tenerte en pie
    
    
    
  •   Am              Dm
    
    |--5--5--5--7--8---------12--10--|
    |-----------------5--6-----------|
    |--------------------------------|
    |--------------------------------|
    |--------------------------------|
    |--------------------------------|
    
      E                     Am
    
    |--7--7--7--8--10-|-13--12--10-----10--12----5--5--4--4--3--3--|
    |-----------------|-------------13-----------------------------|
    |-----------------|--------------------------------------------|
    |-----------------|--------------------------------------------|
    |-----------------|--------------------------------------------|
    |-----------------|--------------------------------------------|
    
    
      Am              Dm
    
  • Esta cancion esta chevere
    en e special en el cambio del principio a las estrofas
    te sa ganas de tocarlo muy bien
    
    E|-----------|-0-1-|-----|----------|-----------|---------|
    A|--0-00-2-3-|-----|-----|-2-22-3-5-|----5-3-5--|---------|
    D|-----------|-----|-2-3-|----------|-3-2-----2-|-776655--|
    G|-----------|-----|-----|----------|-----------|---------|
    
    E|--5-5-4-4-|---------|---------|--------|
    A|---7---7--|-5-5-4-4-|-5577557-|-5-7-7--|
    D|----------|--7---7--|---------|----7-7-|
    G|----------|---------|---------|--------|
    
    tomaste el vaso aquel
    E|--5-5-4-4-|---------|---7---|--------|
    A|---7---7--|-5-5-4-4-|-7---7-|-5-7-7--| x2
    D|----------|--7---7--|-------|----7-7-|
    G|----------|---------|-------|--------|
    
    Esta noche es hora
    E|----5----|---3----|--------|------|-----|
    A|--5--5-5-|-3--3-3-|-2------|--2---|-2---|
    D|---7--7--|--5--5--|--4--4--|-2----|--2--|
    G|---------|--------|---4--4-|----4-|-----|
    
    E|----5--5-|---3---|--------|---0-|-2--|
    A|--5--5---|-3--3--|-2------|--2--|----|
    D|--
  • +
    ¡Colabora con nosotros!
    Envíanos tu versión de esta canción

Demasiada Presion Lyrics
Tomaste el vaso aquél
aquél que no debes tomar
saliste a caminar
y decidiste ir la a buscar
mil veces y una más
juraste no volverla a ver
la fiesta terminó
ya no podés tenerte en pie
Esta noche es hora de que pienses en cambiar
el tiempo pasa pronto y todo tiene su final
pasa, pasa, pasa, pasame un vaso más
volvamos caminando pero elijamos el lugar.
Noche de calor en la ciudad
ella te dejó y todo sigue igual.
Mil veces y una más
Juraste que vas a crecer
y solo una vez más
Creciste hasta morir sin ver
la fiesta terminó
no te pudiste controlar
mil golpes y uno más
la noche te volvió a pegar
Esta noche es hora de que pienses en cambiar
el tiempo pasa pronto y todo tiene su final
Pasa, pasa, pasa, pásame un vaso más
Volvamos caminando pero elijamos el lugar.
Noche de calor en la ciudad
Ella te dejó y todo sigue igual
Quisiera volver el tiempo atrás
Pero lo que vuelve es esta noche nada más




[Demasiada Presion acordes][Demasiada Presion cifra]
© LaCuerda.net · legal notice · privacy · es · en · pt · contact us
DINAMICO