Bass Tab of los Fabulosos Cadillacs: Demasiada Presion
Fernandez Capello
Vasos Vacios
Esta cancion esta chevere
en e special en el cambio del principio a las estrofas
te sa ganas de tocarlo muy bien

E|-----------|-0-1-|-----|----------|-----------|---------|
A|--0-00-2-3-|-----|-----|-2-22-3-5-|----5-3-5--|---------|
D|-----------|-----|-2-3-|----------|-3-2-----2-|-776655--|
G|-----------|-----|-----|----------|-----------|---------|

E|--5-5-4-4-|---------|---------|--------|
A|---7---7--|-5-5-4-4-|-5577557-|-5-7-7--|
D|----------|--7---7--|---------|----7-7-|
G|----------|---------|---------|--------|

tomaste el vaso aquel
E|--5-5-4-4-|---------|---7---|--------|
A|---7---7--|-5-5-4-4-|-7---7-|-5-7-7--| x2
D|----------|--7---7--|-------|----7-7-|
G|----------|---------|-------|--------|

Esta noche es hora
E|----5----|---3----|--------|------|-----|
A|--5--5-5-|-3--3-3-|-2------|--2---|-2---|
D|---7--7--|--5--5--|--4--4--|-2----|--2--|
G|---------|--------|---4--4-|----4-|-----|

E|----5--5-|---3---|--------|---0-|-2--|
A|--5--5---|-3--3--|-2------|--2--|----|
D|---7--7--|--5--5-|--4--4--|-2---|----|
G|---------|-------|---4--4-|-----|----|

noche de calor
E|--5-5-4-4-|---------|---7---|--------|
A|---7---7--|-5-5-4-4-|-7---7-|-5-7-7--| x3
D|----------|--7---7--|-------|----7-7-|
G|----------|---------|-------|--------|

Esta noche es hora
E|----5----|---3----|--------|------|-----|
A|--5--5-5-|-3--3-3-|-2------|--2---|-2---| x2
D|---7--7--|--5--5--|--4--4--|-2----|--2--|
G|---------|--------|---4--4-|----4-|-----|

E|-----------|-0-1-|-----|----------|------------|
A|--0-00-2-3-|-----|-----|-2-22-3-5-|----5-3-5---|
D|-----------|-----|-2-3-|----------|-3-2-----2--|
G|-----------|-----|-----|----------|------------|

antes de volver a tocar
E|-----|
A|--7--|
D|-----|
G|-----|

E|--5-5-4-4-|---------|---7---|--------|
A|---7---7--|-5-5-4-4-|-7---7-|-5-7-7--| x4
D|----------|--7---7--|-------|----7-7-|
G|----------|---------|-------|--------|

Esta noche es hora..hasta el final
E|----5----|---3----|--------|------|-----|
A|--5--5-5-|-3--3-3-|-2------|--2---|-2---|
D|---7--7--|--5--5--|--4--4--|-2----|--2--|
G|---------|--------|---4--4-|----4-|-----|

hasta el final tiene estas variaciones
no todos en uno
E|----------|---------|-------|------|-----|
A|--5-----7-|-3-----5-|-2-----|--2---|-2---|
D|---7---7--|--5---5--|--4----|-2----|--2--|
G|----7h9---|---5h7---|---4h6-|----4-|-----|

atte. miauricio gatolar
This file is the work if its transcriptor and it represents his/her own interpretation of the song. This material is intended for PERSONAL USE ONLY. It is strictly forbiden to copy, reproduce or retransmit the contents of this website. Legal actions will be taken if required.
© LaCuerda.net · legal notice · privacy · es · en · pt · contact us