Guitar Chords » E »Extremoduro » So Payaso (Tab)

So Payaso
Extremoduro

Lyrics, Chords & Tabs for Guitar, Bass & Ukulele

  • MIm* MIm* SIm
              Puede que me deje llevar,
    MIm* MIm* SIm
              o puede que levante la voz
    MIm* MIm* SIm
              y puede que me arranque sin mas,
    MIm* MIm* SIm                  DO
              a ver que me dice despues...
    
    MIm* MIm* SIm
              Quiero ser tu perro fiel,
    MIm* MIm* SIm
              tu esclavo sin rechistar
    MIm* MIm* SIm
              que luego me desato y veras,
    MIm* MIm* SIm                  DO        MIm
              A ver que me dice despues so payaso
                    DO        MIm
    me tiemblan los pies a su lado
                  DO           MIm
    
  • Em:    079987 (EL NORMAL PARA LAS ESTROFAS E INTROS O SOLOS)
         ó 075000 (PARA EL Em DE DESPUÉS DEL Cmaj7 en las INTROS,
                   Y EN TODOS LOS ESTRIBILLOS)
    Bm7:   797777
    Cmaj7: x32000
    Cm7b5: x42000
    
    
    Instrucciones:
    
    El espacio entre dos barras significa un compás.
    
    Los puntos con la doble barra significa repetir las veces
    que indica el nº que sigue a la x.
    
    He sacado la base armónica pero no la melodía de los solos.
    
    Un estribillo comprende "a ver qué me dice después SO PAYASO" y
    "a ver qué me dice después SO CRETINO" (por no volver a
    copiarlos al final después del solo final largo).
    
  • E -----------------------------------------------------------|
    B -----------------------------------------------------------|
    G -----------------------------------------------------------|
    D -----5--5--4---------4--5------5--5--4-----------4---5-----|
    A -----7--7--5---5--7------------7--7--5--5--5--5------------|
    E --0-------------------------0------------------------------|
    
                                  RIFF 1  Em7        Bm7   C
    E --------------------------|--------------------------------|
    B --------------------------|----------8----------7----8-----|
    G ------0--------0------0---|----------7----------7----9-----|
    D ----2--------2------2-----|----------9----------7----10----|
    A --3--------2------4-------|----------7----------9----10----|
    E ---------0----------------|----------0----------7----8-----|
    
      RIFF 2      C           E   (repetir)    C#dim
    E -----------------------------------------------------------|
    B -----------------------------------------------------------|
    G -----------5-5-5-5-----------------------0-0-0-------------|
    D -----------5-5-5-5-----2-2-2-2-----------2-2-2-------------|
    
  • ------
    
    E|-------------------------|
    B|-------------------------|
    G|-------------------------|
    D|---5-----5---4------4-5--|
    A|---7-----7---5--5-7------|
    E|-0---0-0---0-------------|
    
    
    E|---------------------------|
    B|---------------------------|
    G|---------------------------|
    D|---5-----5---4--------4-5--|
    A|---7-----7---5--5-5-5------|
    E|-0---0-0---0---------------|
    
    
    E|--------------------------|
    B|--------------------------|
    
  • E -----------------------------------------------------------|
    B -----------------------------------------------------------|
    G -----------------------------------------------------------|
    D -----5--5--4---0--2--4--5------5--5--4--0--0--0--4---5-----|
    A -----------------------------------------------------------|
    E --0-------------------------0------------------------------|
                                  
                                  RIFF A (principal)
    E --------------------------|--------------(0)---(0)---------|
    B ----0--------0---------0--|-----------------(0)----(0)-----|
    G ----0--------0---------0--|-------4--4--4------------------|
    D -----------------------0--|-------5--5--4------------------|
    A --3---3---7-----7---4-----|--------------------------------|
    E --------------------------|----0---------------------------|
        
      RIFF B          
    E ---------0---------0----------0----------0----------0------|
    B -------0---0-----0---0------0---0------0---0------0---0----|
    G -----0---------0----------0----------0----------0----------|
    D -----------------------------------------------------------|
    
  • Em  Bm                   Em
        Puede que me deje llevar
    Bm                    Em
    puede que levante la voz
      Bm                        Em
    y puede que me arranque sin más,
      Bm                   C
    ¡a ver qué me dice después!
    Em  Bm                   Em
         Quiero ser tu perro fiel,
    Bm                     Em
      tu esclavo sin rechistar
    Bm                        Em
      que luego me desato y verás,
    Bm                         C
      ¡a ver qué me dices después!
         Em                      C        Em
    So payaso, me tiemblan los pies a su lado
                   C          Em
    me dice que estoy descolorío
    
  • E|---------------------------------------------------------------------
    B|---------------------------------------------------------------------
    G|---------------------------------------------------------------------
    D|---9-----9----------------------------9-----9------------------------
    A|---10----10--9~~---------7-9-10-------10----10--9~~---------7-9-10---
    E|-0-----0----------0-0-0-------------0-----0----------0-0-0-----------
    
    
    Guitar 2   RIFF 1
    E|---------------------------------------------------------------------
    B|---------------------------------------------------------------------
    G|----4---4-------------------------4---4------------------------------
    D|----5---5--4---------2-4-5--------5---5---4----------2-4-5-----------
    A|--------------5-5-5--------------------------5-5-5-------------------
    E|-0------------------------------0------------------------------------
    
    
    RIFF 1   GUITARRA  1 Y 2
    
    Puede que me deje llevar
    
  • Principio: Sin Bajo.
    
     Puede que me deje llevar...
     puede que levante la voz...
     o puede que me arranque sin mas...
     a ver que me dice despues..
    
    despues solo le da a Si una vez cada fraseo de guitarra
    
    G -------------------------------
    D -------------------------------
    A -------------------------------
    E -----7--------7-------7-------7
    
    Quiero ser tu perro fiel, tu esclavo...
    
    
    luego la linea de bajo es con estos acordes repetidamente Do-Mi
    y para acabar Do#
    
    G -------------------------------------------------------------------
    D -------------------2-2-2-2-2-2-2-2-----------------2-2-2-2-2-2-2-2-
    A -3-3-3-3-3-3-3-3-3-----------------3-3-3-3-3-3-3-3-----------------
    E -------------------------------------------------------------------
    
     -------------------------------------------------
     ----------------2-2-2-2-2-2-2-2------------------
     3-3-3-3-3-3-3-3------------------4-4-4-4-4-4-4-4-
     -------------------------------------------------
    
    
    en la entrada de todos los instrumentos el bajo 
  • +
    ¡Colabora con nosotros!
    Envíanos tu versión de esta canción
  • Tutorial
    Como Hacer So Payaso de Extremoduro
    9:27
  • Tutorial
    Cómo tocar la intro de 'So Payaso' de Extremoduro (Tutorial Guitarra Acustica - www.Shigaru.com)
    10:32

So Payaso Lyrics
Puede que me deje llevar,
o puede que levante la voz
y puede que me arranque sin mas,
a ver que me dice despues...
Quiero ser tu perro fiel,
tu esclavo sin rechistar
que luego me desato y veras,
A ver que me dice despues so payaso
me tiemblan los pies a su lado
me dice que estoy descolorio y
la empiezo a besar...
a ver que me dice despues so cretino
y me tiemblan los pies, a su lado
me dice que estoy descolorio
y empiezo a pensar......a ver que me dice despues
acercate y ya veras,
que no se como hacerlo peror
po despacito pero mu mal
a ver que me dice despues.......
hago casas de carton
ayer bebi hasta jurar
pero hoy no me levanta ni Dios
y a ver que me dice despues so payaso
me tiemblan los pies a su lado
me dice que estoy descolorio
la empiezo a besar......
a ver que me dice despues so cretino
y me tiemblan los pies a su lado
me dice que estoy desconocio
y empiezo a pensar..... a ver que me dice despues.
y a ver que me dice despues so payaso
me tiemblan los pies a su lado
me dice que estoy descolorio
la empiezo a besar......
a ver que me dice despues so cretino
y me tiemblan los pies a su lado
me dice que estoy desconocio
y empiezo a pensar..... a ver que me dice despues.




[So Payaso acordes][So Payaso cifra]
© LaCuerda.net · legal notice · privacy · es · en · pt · contact us
DINAMICO