Guitar Chords » E »Extremoduro » Ama, ama y ensancha el alma (Tab)

Ama, ama y ensancha el alma
Extremoduro

Lyrics, Chords & Tabs for Guitar, Bass & Ukulele

  • LA (P.M.)
    Ama...ama...ama.... Y ensancha el alma!
    
    
    LA                             MI
    Quisiera que mi voz fuera tan fuerte
           FA#m                 DO#m  RE
    que a veces retumbaran las montañas
            LA                  MI
    y escuchárais las mentes-social-adormecidas
    FA#m                       DO#m   RE
    las palabras de amor de mi garganta.
    
    
     LA                               MI
    Abrid los brazos, la mente y repartíos
         FA#m                           DO#m  RE
    que sólo os enseñaron el odio y la avaricia
         LA                    MI
    y yo quiero que todos como hermanos
    
  •  LA                             MI
    Quisiera que mi voz fuera tan fuerte
           FA#m              RE
    que a veces retumbaran las montañas
            LA                  MI
    y escuchárais las mentes-social-adormecidas
    FA#m              RE
    las palabras de amor de mi garganta.
    
    
     LA                               MI
    Abrid los brazos, la mente y repartíos
         FA#m                 RE
    que sólo os enseñaron el odio y la avaricia
         LA                    MI
    y yo quiero que todos como hermanos
     FA#m                  RE
    repartamos amores, lágrimas y sonrisas.
    
    
    
  • Bueno aquí os dejo esta pedazo de canción.
    Que la disfruteis y os divirtais tocándola..y a ver si se siguen mandando
    canciones de extremoduro....
    Va dedicada a todos los seguidores de extremo, a mi gente de toledo y
    a esa clase de dibujo técnico que como yo, disfrutan de la música y
    en especial a los “componentes” del grupo, búres y lamber.
    
    Si teneis alguna duda, me quereis comentar algo o lo que sea escribidme
    1 e-mail a:
    
    erasa_9@hotmail.com
    
    SALUD¡    KIK
    
    
    x= muffled strings
    h= hammer on
    p.m= palm muting
    f= full
    s= slide
    p= pull-off
    
    
    e||-----------------|-2---------2---------|-4---x--4----5-|----4---2----||
    B||-5-5-5-5-5-5-5-5-|-3-p-2-----3-p-2-----|-5---x--5----5-|----5---3----||
    G||-----------------|-------4-2-------4-2-|---------------|-------------||
    D||-----------------|---------------------|---------------|-------------||
    A||-----------------|---------------------|---------------|-------------||
    E||-----------------|---------------------|---------------|-----------
  • Bajo
    
    G||--------------------------|--------------------------|
    D||--------------------------|--------------------------|
    A||--0--0--0--0--0--0--0--0--|--0--0--0--0--0--0--0--0--|
    E||--------------------------|--------------------------|
    
    
    
    --------------------------|--------------------------|
    --------------------------|--------------------------|
    --0--0--0--0--0--0--0--0--|--0--0--0--0--0--0--0--0--|
    --------------------------|--------------------------|
    
    
    
    --------------------------|--------------------------|
    --------------------------|--------------------------|
    --0--0--0--0--0--0--0--0--|--0--0--0--0--0--0--0--0--|
    --------------------------|--------------------------|
    
    
    
    --------------------------|--------------------------|
    --------------------------|--------------------------|
    --0--0--0--0--0--0--0--0--|--0--0--0--0--0--0--0--0--|
    --------------------------|--------------------------|
    
    
    
    --------------------------|--------------------------|
    ----
  • +
    ¡Colabora con nosotros!
    Envíanos tu versión de esta canción

Ama, ama y ensancha el alma Lyrics
Ama...ama...ama.... Y ensancha el alma!
Quisiera que mi voz fuera tan fuerte
que a veces retumbaran las montañas
y escuchárais las mentes-social-adormecidas
las palabras de amor de mi garganta.
Abrid los brazos, la mente y repartíos
que sólo os enseñaron el odio y la avaricia
y yo quiero que todos como hermanos
repartamos amores, lágrimas y sonrisas.
De pequeño me impusieron las costumbres
me educaron para hombre adinerado
pero ahora prefiero ser un indio
que un importante abogado.
Hay que dejar el camino social alquitranado
porque en él se nos quedan pegadas las pezuñas
hay que volar libre al sol y al viento
repartiendo el amor que tengas dentro.
la anterior no me sonaba del todo bien así que aqui
tenemos una nueva versión..a ver que os parece
espero que os guste
felicitaciones,quejas.. miguelandme@hotmail.com




[Ama, ama y ensancha el alma acordes][Ama, ama y ensancha el alma cifra]
© LaCuerda.net · legal notice · privacy · es · en · pt · contact us
DINAMICO