Guitar Chords » E »Extremoduro » BriBriBliBli (Tab)

BriBriBliBli
Extremoduro

Lyrics, Chords & Tabs for Guitar, Bass & Ukulele

  •      E --3-3-3-3-3-3-3-0-0-0-0-0-0-0-0-0|
    
     INtro:
    
      riff x8
    
         al final de la intro otra gitarra toca sol
    
    
    
     Estrofa:
    
                        riff
       Me acuerdo de ti,
                              riff
       me cago en tus muertos,
    
       2ª guitarra:
    
       e -------------------------3--
    
  •      E --3-3-3-3-3-3-3-0-0-0-0-0-0-0-0-0|
    
     Intro:
    
      Riff x8 + G
    
    
     Estrofa:
    
                        riff
       Me acuerdo de ti,
                              riff
       me cago en tus muertos,
    
       2ª guitarra:
    
       e -------------------------3--
       b -------------------------3--
       g -----0-----------0-------4--
       d ---2---2------0----------5--
    
  • NOTA:
    
    Espero y te ayude en algo esta tab.
    Si necesitas una tab en especial, escríbeme o visita...
    
    *******************************************
    * http://www.myspace.com/alejandrolauyola *
    *******************************************
    
    - Revisa la afinación de esta canción
    - Pon atención a las instrucciones que están al final
    - contiene las 2 guitarras y letra
    - CALIFICA SOLO SI LEÍSTE "EL MANUAL"-
    
    ------------guitar 1------------------
    
    
         E  E  E  E  E  E  E  E     E  E  E  E  E  E  E  E
    E||--------------------------|--------------------------|
    B||--------------------------|--------------------------|
    G||--------------------------|--------------------------|
    D||--------------------------|--------------------------|
    A||--3--3--3--3--2--2--2--2--|--2--2--2--2--2--2--2--2--|
    E||--3--3--3--3--3--3--3--0--|--0--0--0--0--0--0--0--0--|
    
    
      E  E  E  E  E  E  E  E     W
    --------------------------|-------------------|
    --------------------------|-------------------|
    ---------------------
  •                             Bribriblibli
    NOTA:
    
    Espero y te ayude en algo esta tab.
    
    Si necesitas una tab en especial, escríbeme o visita...
    
    myspace.com/alejandrolauyola
    
                                 W                   Q.     E  Q.     E
    G||-------|-------|-------|-------------------|----------------------|
    D||-------|-------|-------|-------------------|----------------------|
    A||-------|-------|-------|-------------------|--3------3--2---------|
    E||-------|-------|-------|-------------------|-------------------0--|
    
    
      Q.     E  Q.     E     Q.     E  Q.     E     W
    ----------------------|----------------------|-------------------|
    ----------------------|----------------------|-------------------|
    ----------------------|--3------3--2---------|-------------------|
    --L------0--0---------|-------------------0--|--L----------------|
    
    
      E  E  E  E  E  E  E  E     E  E  E  E  E  E  E  E
    --------------------------|--------------------------|
    --------------------------|-------------------
  • +
    ¡Colabora con nosotros!
    Envíanos tu versión de esta canción

BriBriBliBli Lyrics
riff x8
al final de la intro otra gitarra toca sol
Estrofa:
riff
Me acuerdo de ti,
riff
me cago en tus muertos,
2ª guitarra:
riff
no puedo dormir,
me sueño que has vuelto.
Estribillo
Sueño con tu piel, me siento mejor
ya no tengo sed, ya puedo bailar de flor en flor,
me vuelvo a perder entre el edredón
me vuelvo a quedar sin sol, sin sol, sin sol.
Estrofa
De tanto pensar,
de perder el tiempo,
de tanto privar,
por poco reviento.
Estribillo
Sueño con tu piel, me siento mejor
ya no tengo sed, ya puedo bailar de flor en flor,
me vuelvo a perder entre el edredón
me vuelvo a quedar sin sol, sin sol, sin sol.
aora viene el solo empieza acompañando kn el riff y despues kn
los akordes del estribillo
Me coge de la mano
y yo me sueño con tu pelo
para estar tan colgado
hace falta echarle güevos.
Bri bri bli bli
Bri bri bri bli bli bli
Bri bri bli bli
Bri bri bri bli bli bli.
Os regalo mis canciones
y me apuntan con el dedo
mira por donde va el Robe
para mí que ya está pedo...
kada vez mas rapido y:
bribriblibli
MArcO
y si jose! te la dedico xD




[BriBriBliBli acordes][BriBriBliBli cifra]
© LaCuerda.net · legal notice · privacy · es · en · pt · contact us
DINAMICO