Guitar Chords » E »Enrique Iglesias » Loco (Tab)

Loco
Enrique Iglesias

Lyrics, Chords & Tabs for Guitar, Bass & Ukulele

  • G                                                       D
    Te pido de rodillas, luna no te vayas, alumbrale la noche
                          Em                C
    a ese corazón desilusionado aveces maltratado
                  G                                     D
    no te perdonaré si me dejas solo con los sentimientos
                                             Em                C
    que pasan como el viento, lo revuelven todo y me vuelven loco
    
    C
    loco por besar tus labios,
                   D
    sin que quede nada por dentro
                         G
    de mi diciéndotelo todo
    C
    yo no te perdonaré,
                     D
    si me dejas por dentro
                                G
    
  • 1I-------------I-2-----3-----2--I-0----2----3---I----------------
    2I-0---1-----0-I---3-----3------I-0-0----0------I-1----3-----1---
    3I---0---0-----I-----2-----2----I-0---0---0-----I---0----0-------
    4I-----0---0---I-0--------------I-2-------------I-----2----2-----
    5I-------------I----------------I-2-------------I-3--------------
    6I-3-----------I----------------I-0-------------I----------------
    
    
    (EL RASGUEO ES PERCUSIVO )
    
    G                                                       D
    Te pido de rodillas, luna no te vayas, alumbrale la noche
                          Em                C
    a ese corazón desilusionado aveces maltratado
                  G                                     D
    no te perdonaré si me dejas solo con los sentimientos
                                             Em                C
    que pasan como el viento, lo revuelven todo y me vuelven loco
    
    C
    
  •        G
    e|------------------------|
    B|----0---1---0----0---1--|
    G|-----0---0--------0---0-|
    D|------0---0--------0---0|
    A|------------------------|
    E|----3------------3------|
    
    
               G
    e|-----------------------------------------|
    B|----0---1---0---------------------0---1--|
    G|-----0---0-------------------------0---0-|
    D|------0---0-------------------------0---0|
    A|-----------------------------------------|
    E|----3-----------------------------3------|
     Te pido de rodillas, Luna no te vayas
                    D
    e|-----------------2--3--2--------2--3--2----|
    B|------------------3--3-----------3--3------|
    
  •      G
    e|------------------------|
    B|---------0-----------0--|
    G|------2-2---------2-2---|
    D|-----0-0---------0-0----|
    A|------------------------|
    E|----3-----------3-------|
    
                     G                     G
    e|---------------------------------------------------|
    B|---------------------0----------------------0------|
    G|------------------2-2--------------------2-2-------|
    D|-----------------0-0--------------------0-0--------|
    A|---------------------------------------------------|
    E|----------------3----------------------3-----------|
    Te pido de rodillas,      luna no te vayas
    
    
                    Dsus4                  Dsus4
    e|-----------------3--3p2-----------------3--3p2-----|
    
  • E----------------------------------------------------
    B--0-----1------0--------0-----1------0---------------
    G----0------0--------------0------0------------------
    D------0------0--------------0------0----------------
    A----------------------------------------------------
    E--3---------------------3-----------------------------
    
    Intro version Bachata
    
    E--7-----8-------7-----7-------7-----8------7--------
    B----8-------8-----8-----8-------8------8------------
    G------7-------7-----7-----7-------7------7----------
    D----------------------------------------------------
    A----------------------------------------------------
    E----------------------------------------------------
    
    
    Te pido de rodillas, Luna no te vallas
    
    E-------------------------------------------------
    
  • +
    ¡Colabora con nosotros!
    Envíanos tu versión de esta canción
  • Tutorial
    HD
    Como tocar Loco de Enrique Iglesias FT Romeo Santos en Guitarra Acustica (HD)
    COMPLETO + SOLO
    12:09

Loco Lyrics
Te pido de rodillas, luna no te vayas, alumbrale la noche
a ese corazón desilusionado aveces maltratado
no te perdonaré si me dejas solo con los sentimientos
que pasan como el viento, lo revuelven todo y me vuelven loco
loco por besar tus labios,
sin que quede nada por dentro
de mi diciéndotelo todo
yo no te perdonaré,
si me dejas por dentro
con ese dolor no te perdonaré,
si me vuelves loco
te pido de rodillas (uno y mil perdones)
que al llegar la aurora (no me digas adios)
no dejes ir el llanto (de tantas canciones)
de una luna rota (como una guitarra)
por tantas promesas (que se van volando)
que me vuelven loco (ay ay ay ay)
loco por besar tus labios,
sin que quede nada por dentro
de mi diciéndotelo todo
yo no te perdonaré,
si me dejas por dentro
con ese dolor no te perdonaré,
si me vuelves loco
te pido de rodillas luna no te vayas...




[Loco acordes][Loco cifra]
© LaCuerda.net · legal notice · privacy · es · en · pt · contact us
DINAMICO