Guitar Chords » E »Enrique Iglesias » Bailando (Tab)

Bailando
Enrique Iglesias

Lyrics, Chords & Tabs for Guitar, Bass & Ukulele

  • MIm   DO   SOL   RE
    MIm                      DO
    YO TE MIRO Y SE CORTA LA RESPIRACION
    MIm                              RE
    CUANDO TU ME MIRAS SE ME SUBE EL CORAZON
    MIm
    Y EN TU SILENCION TU MIRADA
             DO
    DICE MIL PALABRAS
    MIm
    LA NOCHE EN LA QUE TE SUPLICO
                    RE
    QUE NO SALGA EL SOL
    CORO
    LAm
    BAILANDO OH, OH, BAILANDO OH,OH, BAILANDO
    DO
    TU CUERPO Y EL MIO LLEGANDO
                        RE
    AL VACIO SUBIENDO Y BAJANDO
    
  • MIm   DO   SOL   RE
    MIm                      DO
    YO TE MIRO Y SE CORTA LA RESPIRACION
    SOL                             RE
    CUANDO TU ME MIRAS SE ME SUBE EL CORAZON
    MIm
    Y EN TU SILENCIO TU MIRADA
             DO
    DICE MIL PALABRAS
    SOL
    LA NOCHE EN LA QUE TE SUPLICO
                    RE
    QUE NO SALGA EL SOL
    
    PRECORO
    LAm              DO
    BAILANDO OH, OH, BAILANDO OH,OH, BAILANDO
              MIm
    TU CUERPO Y EL MIO LLEGANDO
                        RE
    
  • E/:--0-2-3-2-0-3---2-3-2-0---0-2-3-2-0-3-------0-----------3-2-2-/
    B/:--------------------------------------3-3-3---3-3-0-3-3-------/
    G/:--------------------------------------------------------------/
    D/:--------------------------------------------------------------/
    A/:--------------------------------------------------------------/
    E/:--------------------------------------------------------------/
    
    
    E/:-3-5-7-5-3-7--5-3-7--5-3-3--8-8-8-10-8-8-7-7--7-8-7-8-7-5--3-2-2-//
    B/:-----------------------------------------------------------------//
    G/:-----------------------------------------------------------------//
    D/:-----------------------------------------------------------------//
    A/:-----------------------------------------------------------------//
    E/:-----------------------------------------------------------------//
    
    
    
    MIm                        DO
    Yo te miro, se me corta la respiración
    SOL                              RE
    
  • -------------------------DATOS DE LA CANCIÓN--------------------
    
    Bailando, es una canción escrita por el cantautor cubano Descemer Bueno,
    e interpretada a dueto con el grupo cubano Gente de Zona. Posteriormente
    la canción fue publicada por el sello discográfico Universal Republic e
    interpretada por Enrique Iglesias, Descemer Bueno y Gente de Zona.
    Existe una versión en spanglish que cuenta con la colaboración
    del cantante jamaiquino Sean Paul. Obtuvo el número uno en la lista de
    sencillos de España, y en las listas de música latina de Billboard.
    
    ----------------------------RECOMENDACIÓN-----------------------
    
    Cada cierre de punteo poner vibrato para relucir la nota y que suene mejor.
    cualquier duda pueden escribirme a mi correo que aparece en la parte superior
    derecha.
                               (FrancoRimassa)
    ojo: para los que no saben leer bien las haches o tienen problemas para tocar
    la pieza,obvienlas...toquen por partes cortas, para entenderle mejor...
    
                        BAILANDO - ENRIQUE IGLESIAS
    
  •                    Em               C
    e|--------------------------------------|
    B|-----7-7/8-7------~8------7---8-7-----|
    G|--9----------9--------------------9---|
    D|--------------------------------------|
    A|--------------------------------------|
    E|--------------------------------------|
    
                     G                  D
    e|----------------------------------------|
    B|-----7-7/8-7---8---------------7/8-7-7--|
    G|--9----------9---7-7-9-7---7-7----------|
    D|-------------------------9--------------|
    A|----------------------------------------|
    E|----------------------------------------|
    
                Em                 C
    e|-3-5-7-5-3-7---5-5-3-7---5-3-3--------|
    B|-5-7-8-7-5-8---7-7-5-8---7-5-5--------|
    G|--------------------------------------|
    
  • E||-0--2--2h3--2--0--3---2--3h2h0----------------------|
    B||----------------------------------------------------|
    G||----------------------------------------------------|
    D||----------------------------------------------------|
    A||----------------------------------------------------|
    E||----------------------------------------------------|
    
    
    E||-0--2--2h3--2-0-3---------0----------------3--2--1h2|
    B||------------------3--3--3----3--3--0--3--3----------|
    G||----------------------------------------------------|
    D||----------------------------------------------------|
    A||----------------------------------------------------|
    E||----------------------------------------------------|
    
    
    E||-3---5---7---5---3---7----5---3---7----5---3---3----|
    B||-5---7---8---7---5---8----7---5---8----7---5---5----|
    G||----------------------------------------------------|
    D||----------------------------------------------------|
    
  •                Em         C               G                       D
    e -0-2-2h3-2-0-3---2--3h2-0--|--0-2-3-2-0-3-------0-----------3-2-2-|
    b ---------------------------|--------------3-3-3---3-3-0-3-3-------|
    g ---------------------------|--------------------------------------|
    
    e -------7------7-----------7----------|----------------
    b --8-10-8-10-8-8---10-10-8-8--10-8-8--|----------------
    g --9-11---11-9-----11-11-9----11-9-9--|----------------
    
    
    e --8--8--8-10---8--8--7-7-------|---8--8-7-7-5-5--3-3-2-2--
    b -10-10-10-10--10-10--8-8--0-0--|--10-10-8-8-7-7--5-5-3-3--
    g --------------------------7-7--|--------------------------
    
    
    Introducción: Em  C   G   D  2x
    
    Em                                  C
     Yo te miro y se me corta la respiración
    G                                     D
    
  •                   Em         C                  G                     D
    e|--------------------------------------------------------------------------
    B|---5-7-7(8)-7(5)-8---7-8-7-5---5-7-7(8)-7-5-8-------------------8-7-8(7)--
    G|----------------------------------------------7-7-7-9-7-7---7-7-----------
    D|----------------------------------------------------------9---------------
    A|--------------------------------------------------------------------------
    E|--------------------------------------------------------------------------
    
                   Em                C               G                        D
    e|---3-5-7-5-3-7---5-5-3-7---5-3-3---8-8-8-10-8-10(8)-7-7-------8-8-7-7-5-5-
    B|---5-7-8-7-5-8---7-7-5-8---7-5-5---8-8-8-8--8-8-----8-8-8-8---8-8-8-8-7-7-
    G|--------------------------------------------------------7-7---------------
    D|--------------------------------------------------------7-7---------------
    A|--------------------------------------------------------------------------
    E|--------------------------------------------------------------------------
    
    e|---3-3-2-2----------------------------------------------------------------
    B|---5-5-3-3----------------------------------------------------------------
    G|--------------------------------------------------------------------------
    D|--------------------------------------------------------------------------
    
  • +
    ¡Colabora con nosotros!
    Envíanos tu versión de esta canción
  • Tutorial
    Como tocar BAILANDO de - Enrique Iglesias ft Gente de Zona - en Guitarra Acustica COMPLETO (HD)
    6:00
  • Tutorial
    Como tocar BAILANDO Enrique Iglesias ft Gente de Zona en Guitarra Acústica FACIL tutorial GUITAR
    5:30
  • Tutorial
    Como tocar Bailando -ENRIQUE IGLESIAS - INTRO Riff . en Guitarra Acustica (HD)
    Tutorial Punteo
    7:35
  • Tutorial
    HD
    Como tocar Bailando de Enrique Iglesias en guitarra acustica cover (HD)
    2:10
  • Tutorial
    Como tocar Bailando de BAILANDO Enrique Iglesias ft Gente de Zona descemer guitarra acordes
    8:03

Bailando Lyrics
YO TE MIRO Y SE CORTA LA RESPIRACION
CUANDO TU ME MIRAS SE ME SUBE EL CORAZON
Y EN TU SILENCION TU MIRADA
DICE MIL PALABRAS
LA NOCHE EN LA QUE TE SUPLICO
QUE NO SALGA EL SOL
BAILANDO OH, OH, BAILANDO OH,OH, BAILANDO
TU CUERPO Y EL MIO LLEGANDO
AL VACIO SUBIENDO Y BAJANDO
BAILANDO OH, OH, BAILANDO OH, OH, BAILANDO
ESE FUEGO POR DENTRO ME VA
ENLOQUECIENDO ME VA SATURANDO
CON TU FISICA Y TU QUIMICA,
TAMBIEN TU ANATOMIA
LA SONRISA Y EL TEQUILA Y TU BOCA CON LA MIA
YA NO PUEDO MAS, YA NO PUEDO MAS
YA NO PUEDO MAS
CON ESA MELODIA, YO VEO TU FANTASIA
CON TU FILOSOFIA MI CABEZA ESTA VACIA
YA NO PUEDO MAS,YA NO PUEDO MAS
YA NO PUEDO MAS
YO QUIERO ESTAR CONTIGO, VIVIR CONTIGO
BAILAR CONTIGO, TENER CONTIGO
UNA NOCHE LOCA Y BESAR TU BOCA
YO QUIERO ESTAR CONTIGO , VIVIR CONTIGO
BAILAR CONTIGO, TENER CONTIGO
UNA NOCHE LOCA Y BESAR TU BOCA
OH,OH,OH,OH,OH,OH,OH,OH,OH
TU ME MIRAS Y YO ESTOY EN
OTRA DIMENSION
TUS LATIDOS ACELERAN
QUE MOVIDA DEL DESTINO
NO PODER TOCARTE,
ABRAZARTE
Y SENTIR LA MAGIA DE TU OLOR
BAILANDO OH, OH, BAILANDO OH,OH, BAILANDO
TU CUERPO Y EL MIO LLEGANDO AL VACIO
SUBIENDO Y BAJANDO
BAILANDO OH, OH,BAILANDO OH, OH, BAILANDO
ESE FUEGO POR DENTRO ME VA
ENLOQUECIENDO ME VA SATURANDO
CON TU FISICA Y TU QUIMICA, TAMBIEN TU ANATOMIA
LA SONRISA Y EL TEQUILA Y TU BOCA CON LA MIA
YA NO PUEDO MAS YA NO PUEDO MAS
YA NO PUEDO MAS
CON ESA MELODIA, YO VEO TU FANTASIA
CON TU FILOSOFIA
MI CABEZA ESTA VACIA
YA NO PUEDO MAS, YA NO PUEDO MAS
YA NO PUEDO MAS
YO QUIERO ESTAR CONTIGO, VIVIR CONTIGO
BAILAR CONTIGO, TENER CONTIGO
UNA NOCHE LOCA Y BESAR TU BOCA
YO QUIERO ESTAR CONTIGO VIVIR CONTIGO
BAILAR CONTIGO, TENER CONTIGO
UNA NOCHE LOCA Y BESAR TU BOCA
OH,OH,OH,OH,OH,OH,OH,OH,OH X 3
ESPERO LES HALLA RESULTADO SUPER FACIL




[Bailando acordes][Bailando cifra]
© LaCuerda.net · legal notice · privacy · es · en · pt · contact us
DINAMICO