Guitar Chords » C »Cultura Profética » Rimas pa' seducir (Tab)

Rimas pa' seducir
Cultura Profética

Lyrics, Chords & Tabs for Guitar, Bass & Ukulele

  •              Bmaj7add11     F#6/A#
    Quieren que tire por la conciencia
            Emaj7/B     F#6/A#
    Otro llamado a la razón
                   Bmaj7add11
    Quieren que le hable
            F#6/A#
    A oidos sordos
              Emaj7/B
    que los celebre
               F#6/A#
    que toquen fondos
            Bmaj7add11      F#6/A#
    a oidos necios palabras sordas
              Emaj7/B            F#6/A#
    si se conforman pa que insistir
       Emaj7/B
    y...
    
    Coro:
    
  • B F# E F# X2
    
                B
    Quieren que hable
                  F#
    Quieren que escupa
                 E              F#
    Lo que se observa bajo esta lupa
                 B              F#
    Quieren que tire por la conciencia
            E            F#
    Otro llamado a la razón
                   B
    Quieren que le hable
            F#
    A oidos sordos
              E
    que los celebre
               F#
    que toquen fondos
    
  • B/D#m: |7|x|8|8|7|x|
    D#m7: |x|6|8|6|7|6|
    Emaj7: |x|7|9|8|9|7|
    G#/B: |4|x|4|4|4|x|
    G/Bm: |3|x|4|4|3|x|
    
    
    Intro:
    B/D#m - D#m7 - Emaj7 - D#m7 X2
    
                B/D#m
    Quieren que hable
                  D#m7
    Quieren que escupa
                 Emaj7              D#m7
    Lo que se observa bajo esta lupa
                 B/D#m              D#m7
    Quieren que tire por la conciencia
            Emaj7            D#m7
    Otro llamado a la razón
    
  • Bmaj7   224342
    C#9sus4 444444
    Emaj    022100
    Em11    304430
    Bmaj11  708870 [este acorde en el CORO y PRECORO es 708876]
    D#m7    668676
    Emaj7   779897
    D#m7*   x68676
    
    *intro
    
         Bmaj7       C#9sus4        Emaj          Em11
    e|----2------|---4-4-4-----|---------0---|-------0-----|
    B|--4-4-4----|-4-4-4-4-4---|---0-----0---|---3-3-3-----|
    G|--3---3----|-4---------4-|---1-----1---|---4-4-------|
    D|--4--------|-4-----------|---2-1h2-----|---4---------| x2
    A|-----------|-------------|---2---------|-------------|
    E|--2--------|-4-----------|-------------|---3---------|
    
         Bmaj11        D#m7         Emaj7         D#m7*
    
  •                         Bmaj11         D#m7       Emaj7     D#m7
    E|-------------------|-------------|-----------|-----7-7-7h9-|-7---------|
    B|-----7-7h9-7----7--|---------7---|---------7-|-9----9-9----|-8---------|
    G|-6h8--------6h8----|-8-8-6h8--8--|-6-6-6h8---|-8-8---------|-----------|
    D|-------------------|-8-----------|-8---------|-------------|-----------|
    A|-------------------|-------------|-6---------|-7-----------|-----------|
    E|-------------------|-7-----------|-----------|-------------|-7---------|
    
                 Bmaj11        D#m7        Emaj7       D#m7
    E|---------|-------------|------------|-----7-7-7h9-|-7----------|
    B|-----7---|---------7---|---------7--|-9----9-9----|-8----------|
    G|-6h8--8--|-8-8-6h8--8--|-6-6-6h8----|-8-8---------|------------|
    D|---------|-8-----------|-8------8---|-------------|------------|
    A|---------|-------------|-6----------|-7-----------|------------|
    E|---------|-7-----------|------------|-------------|-7----------|
    
    Verso:
    (Quieren que…)
         Bmaj11        D#m7         Emaj7         D#m7*
    e|-----0-----|------6------|---------7---|---6---------|
    
  • +
    ¡Colabora con nosotros!
    Envíanos tu versión de esta canción

Rimas pa' seducir Lyrics
Quieren que tire por la conciencia
Emaj7/B F#6/A#
Otro llamado a la razón
Bmaj7add11
Quieren que le hable
F#6/A#
A oidos sordos
Emaj7/B
que los celebre
F#6/A#
que toquen fondos
a oidos necios palabras sordas
Emaj7/B F#6/A#
si se conforman pa que insistir
Emaj7/B
y...
Bmaj7add11
En estos dias busco amor
Emaj7/B F#6/A# Emaj7/B
Pensar en cosas que me hagan reir
Me sobran rimas al dolor
F#6/A#
Por eso hoy solo busco
busco invertir...
tiempo en mis rimas pa' seducir..
ohhh baby
Em9/G
mmmm....
(De aquie en adelante se toca igual que la 1ra estrofa y el coro
tambien va igual)
Quieren que grite
Que grite en masas
Y que repique to' lo que pasa
Y aunque ese fuego de la costumbre
No se critica por criticar
Y lo que sale
Por esta boca
Nunca expira, ni se equivoca
Eso que he dicho en el trayecto
Aun sigue siendo el ideal...
perooo...
En estos dias busco amor
Pensar en cosas que me hagan reir
Me sobran rimas al dolor
Por eso hoy solo busco
busco invertir...
tiempo en mis rimas pa' seducir..
ohhh
baby
Y me voy a lucir...
Tu sabes que si..
ohhh...
Baby...
mmmmmm.....
Eso es todo amigos espero que les sirva.. si quieren saber como va
el ritmo aqui les dejo este link para que se guien:
http://www.youtube.com/watch?v=4uSx78oiFPM&feature=feedlik
Saludos




[Rimas pa' seducir acordes][Rimas pa' seducir cifra]
© LaCuerda.net · legal notice · privacy · es · en · pt · contact us
DINAMICO