Guitar Chords » C »Cultura Profética » De antes (Tab)

De antes
Cultura Profética

Lyrics, Chords & Tabs for Guitar, Bass & Ukulele

  •      A#
    1)---x-----
    2)---3-----
    3)---3-----
    4)---3-----
    5)---x-----
    6)---x-----
    
         G5
    1)---x-----
    2)---x-----
    3)---3-----
    4)---3-----
    5)---5-----
    6)---3-----
    
         G7
    1)---x-----
    2)---x-----
    3)---5-----
    
  • Cm  A#
    Ah... Regálame un segundo por favor...
    Cm                A# G#
    Ah... Preciosa...
    
    
    Cm-A#-Gm-G#
    
    
                  Cm           A#
    Yo a ti te conozco de antes
                   Gm          G#
    he visto esos ojos andantes
          Cm           A#
    Te conozco de antes
    Gm                        G#
      tal vez de un tiempo en que
                    Cm     A#
    mi memoria no alcanza
    Gm                        G#
    
  •  Cm7   Bb6   Gm7 G#maj7 Bdim
    E-X-  E-X-  E-X-  E-X-  E-X-
    B-8-  B-6-  B-3-  B-4-  B-3-
    G-8-  G-7-  G-3-  G-5-  G-1-
    D-8-  D-5-  D-3-  D-5-  D-3-
    A-X-  A-X-  A-X-  A-X-  A-2-
    E-8-  E-6-  E-3-  E-4-  E-X-
    
    Intro:
    Cm7 - Bb6 - Gm7 - G#maj7
    Cm7 - Bb6 - Gm7 - G#maj7
    
    
    Cm7  Bb6
      Aahh...oh...
    Gm7    G#maj7                     Cm7  Bb6
      regalame un segundo por favor,
             Gm7 G#maj7
    preciosa...
    
    
  • intro
    
    G----------------|-----------------------
    D-----5-3--5-----|-----------------------
    A-3-6-----6------|--5-8-6-8-5------------
    E----------------|-6---------------------
    
    G----------------|--------------------------------
    D-----5-3--5-----|--------------------------------
    A-3-6-----6------|--5-8-6--------------3-3-1------
    E----------------|-6------88-8--66--3-4---3-3---3-4
    
    VERSO
    
    G----------------------------------|---------------------------------
    D----------------------------------|---------------------------------
    A----------2--------------3-3---1--|----------2--------------3-3---1h3ph1
    E-3-444-44--4-3--333-3-4-3----3----|-3-444-44--4-3--333-3-4-3----3----
    
    .......yo a ti te conosco de antes ..
    
     intermedio
    
    G--------------------------|                  |------------------------
    D---11-------------------- |                  |-----------------------
    A---------------3--3-1---- |   x4             --------------3--3-1--3-1  Tab/
    E-11--33---3-4-3----3----- |                  |-----
  • +
    ¡Colabora con nosotros!
    Envíanos tu versión de esta canción

De antes Lyrics
A#9 (Si gustan esta nota se pueden alternar por A#B)
Guitarra acustica:
Yo a ti te conozco de antes
he visto esos ojos andantes
Te conozco de antes
Electrica(Pedal - whaaa)
Aaa aaaa oooh
regalame un segundo por favor
Preciosa
Estribillo
Esfrofa I
Yo a ti te conozco de antes
he visto esos ojos andantes
Yo a ti te conozco de antes
Tal vez en un tiempo en que
no habitaba esta masa
Tal vez en un tiempo en que
el lenguaje no hablaba
tal vez mi tiempo fueee
Yo a ti te conozco de antes
y esto me provoca pensarte
te conozco de antes
¿cómo, cuándo y dónde fue?
quiero saber, preciso a entender
serás acaso la dama en mis sueños
o una revelación que no entiendo
dime si lo sabes, no espero nada a cambio preciosa
la lengua me pesa al hablar, tiemblo y sudo sin parar
creo que tus elementos al mezclarse en mi pueden estallar
Te conozco de antes
he visto esos ojos andantes...
Te conozco de antes
Y no es de cruzarnos en la calle nooo
....
El resto es mas o menos igual....




[De antes acordes][De antes cifra]
© LaCuerda.net · legal notice · privacy · es · en · pt · contact us
DINAMICO