Guitar Chords » C »Cristian Castro » Lloran las Rosas (Tab)

Lloran las Rosas
Cristian Castro

Lyrics, Chords & Tabs for Guitar, Bass & Ukulele

  • Intro  G  Am  C/B  C B7  Em  Am  Cm  D
    
    G           D/F#
    Lloran las rosas,
        C                               G
    el rocío ya se convertido en lagrimas,
                            D/F#
    te me has ido, te he perdido
      C             G
    lloran las rosas.
    
    Llora mi alma,
    va gimiendo con las alas, recortadas,
    te me has ido, te he perdido,
    llora mi alma.
    
    PRE
     C             Em          D
    Lagrimas, que ahogan mi corazón,
      C          Em          D
    
  • Intro:G  Am  C/B  C B7  Em  Am  Cm  D
    
       G                  Am            C/B
    
    e|----------------3--2-----3--2---3-----------+----
    B|--------------3-------------------3---------+----
    G|---0--2--2/4--------------------------0-----+----
    D|--0--------------------2------------0-------+----
    A|---------------------0----------------------+----
    E|-3---------------------------------3--------+----
    
                 C      B7     Em
    
    e|--------3--2---0----------------------------+----
    B|--0--3------------3--1---0------------------+----
    G|-------------0------------------------------+----
    D|------------------4----2--------2-----------+----
    A|------------------------------2-------------+----
    E|----------------------------3---------------+----
    
    
  • Esta es la introducción de la canción
    
    Intro:
    
    e|-------------------3--2-----3---2---3-------+----
    B|---------------3------------------------3---+----
    G|--0---2---2/4-------------------------------+----
    D|--------------------------------------------+----
    A|--------------------------------------------+----
    E|--------------------------------------------+----
    
    e|--------3--2---0----------------------------+----
    B|--0--3------------3-------------------------+----
    G|---------------------5--4-------------------+----
    D|--------------------------------------------+----
    A|--------------------------------------------+----
    E|--------------------------------------------+----
    
    e|--------------0-------------------3---------+----
    B|-----0--3--3----1---1/3-4--3--1-------------+----
    G|--------------------------------------------+----
    D|--2-----------------------------------------+----
    A|--------------------------------------------+----
    E|----------------------------------------
  • +
    ¡Colabora con nosotros!
    Envíanos tu versión de esta canción

Lloran las Rosas Lyrics
Lloran las rosas,
el rocío ya se convertido en lagrimas,
te me has ido, te he perdido
lloran las rosas.
Llora mi alma,
va gimiendo con las alas, recortadas,
te me has ido, te he perdido,
llora mi alma.
PRE
Lagrimas, que ahogan mi corazón,
lagrimas, palabras del alma,
lagrimas, mi mudo lenguaje de amor.
Lloran las rosas,
porque no puedo estar sin ti,
lloran celosas,
de que no quieras ya venir,
y entre otras cosas,
yo lloro por ti.
Falta el perfume,
de tu piel por donde anduve,
tu silueta, que veía,
cuando tu dormías.
PRE




[Lloran las Rosas acordes][Lloran las Rosas cifra]
© LaCuerda.net · legal notice · privacy · es · en · pt · contact us
DINAMICO