Guitar Chords » C »Cristian Castro » Azul (Tab)

Azul
Cristian Castro

Lyrics, Chords & Tabs for Guitar, Bass & Ukulele

  • FA - DO - REm - SIb - DO (Entre SIb y DO 1/2 tiempo)
    FA - SIb - DO - FA - LAm - REm - SOL - SIb - DO (Entre FA, LAm y REm 1/2 tiempo)
    
    FA                  SIb           
    Fue una mañana que yo te encontré
    DO                 FA     LAm    
    cuando la brisa besaba tu dulce piel
    REm                     SOL
    Tus ojos tristes que al ver adoré
       SIb               DO
    la noche que yo te amé.
         FA                      SIb
    Azul, cuando en silencio por fin te besé
         DO                   FA      LAm   
    Azul, sentí muy dentro nacer este amor azul
    REm                    SOL
    hoy miro al cielo y en ti puedo ver
          SIb                 DO
    la estrella que siempre soné.
    
    
  • F                  Bb           
    Fue una mañana que yo te encontré
    C                  F       C    Dm
    cuando la brisa besaba tu dulce piel
                            Gm
    Tus ojos tristes que al ver adoré
        Bb               C
    la noche que yo te amé.
    F                             Bb
    Azul, cuando en silencio por fin te besé
    C                         F         C   Dm
    Azul, sentí muy dentro nacer este amor azul
                           Gm
    hoy miro al cielo y en ti puedo ver
           Bb                  C
    la estrella que siempre soné.
    
    Estribillo:
    F                            Bb                C
    Azul, y es que este amor es azul como el mar azul
    
  • \       deslizar Abajo
    /       deslizar arriba
    ~       vibración o tremolo
    [8]       palm muting (nota silenciada con la palma de la mano)
    h      hammer pull (con un golpe de vitela, sacas dos notas)
    5'      Nota levantada un semitono  [bending]
    5''      Nota levantada dos semitonos(bending)
    
    
    Introducción..
    
    FA                 DO               REm
    ------------------|----------------|-------------|------------
    ------------------|----------------|-------------|------------
    ------------------|----------------|-------------|------------
    -----------7-8-10-|-------8/10h8\7-|-------------|------------
    -8-(8)-(8)--------|-7--7-----------|----5--5h7/8-|------------
    ------------------|----------------|-10----------|------------
    
    LA#          DO      FA           LA#          DO
    
  • e---------------------------------------------
    B---------------------------------------------
    G----------2-3-5---------5-3-2----------------
    D--3-3-3-3-------2-2-2-2-------0-0-0-0--------
    A---------------------------------------------
    E---------------------------------------------
    
    
    e---------------------------------------------
    B---------------------------------------------
    G------------5-5-3-2--------------------------
    D--0-2-3---3---------3-3-3-3------------------
    A--------1------------------------------------
    E---------------------------------------------
    
    e---------------------------------------------
    B----------------6-5---------------8-5-6------
    G--2-3-5-5-3-2-3-----0-2-3-3-2-0-2------------
    D---------------------------------------------
    A---------------------------------------------
    
  • ----------------
     h   - hammer-on
     p   - pull-off
     B   - bend
     r   - bend release 
     / \ - slide 
     ~   - vibrato
     =   - hold bend
     ph  - pinch harmonic
     pm  - pal muting
    
    
    INTRO
    
    Para entrar exacto hay qu estar atento al intro del teclado y el remate de bateria...
    
    E|----------------------------------------------------------------------------|
    B|----------------------------------------------------------------------------|
    G|----------------------------------------------------------------------------|
    D|--------------7-8-10-----------10-8-7-------------------------8/10-10-8-7---|
    
  • +
    ¡Colabora con nosotros!
    Envíanos tu versión de esta canción
  • Tutorial
    HD
    Azul Cristian Castro solo de guitarra
    0:35

Azul Lyrics
Fue una mañana que yo te encontré
cuando la brisa besaba tu dulce piel
Tus ojos tristes que al ver adoré
la noche que yo te amé.
Azul, cuando en silencio por fin te besé
Azul, sentí muy dentro nacer este amor azul
hoy miro al cielo y en ti puedo ver
la estrella que siempre soné.
Estribillo:
Azul, y es que este amor es azul como el mar azul
como de tu mirada nació mi ilusión
Azul como una lágrima cuando hay perdón
tan puro y tan azul que me aguó el corazón
Y es que este amor es azul como el mar azul
como el azul del cielo nació entre los dos
Azul como el lucero de nuestra pasión
un manantial azul que me llena de amor.
Como el milagro que tanto esperé
eres la niña que siempre busqué, Azul
es tu inocencia que quiero entender
tu principe azul yo seré
Azul, es mi locura si estoy junto a ti
Azul, rayo de luna serás para mi azul
y con la lluvia pintada de azul
por siempre serás sólo tú.
Repite estribillo
SUBIENDO MEDIO TONO OTRO ESTRIBILLO
Azul es que este amor es azul como el mar azul
como de tu mirada nació mi ilusión
Azul como una lágrima cuando hay perdón
Tan puro y tan azul que me aguo el corazón
Y es que este amor es azul como el mar azul
como el azul del cielo nació entre los dos
Azul como el lucero de nuestra pasión
un manantial azul que me llena de amor.




[Azul acordes][Azul cifra]
© LaCuerda.net · legal notice · privacy · es · en · pt · contact us
DINAMICO